  0
SECTION
  2
HEADER
  9
$ACADVER
  1
AC1015
  9
$ACADMAINTVER
 70
    18
  9
$DWGCODEPAGE
  3
ANSI_1252
  9
$INSBASE
 10
0.0
 20
0.0
 30
0.0
  9
$EXTMIN
 10
-251685.878
 20
150047.076
 30
-5.441
  9
$EXTMAX
 10
-250530.447
 20
150712.425
 30
5.441
  9
$LIMMIN
 10
-253774.867212
 20
147713.045788
  9
$LIMMAX
 10
-248441.457788
 20
153046.455212
  9
$ORTHOMODE
 70
     0
  9
$REGENMODE
 70
     1
  9
$FILLMODE
 70
     1
  9
$QTEXTMODE
 70
     0
  9
$MIRRTEXT
 70
     1
  9
$LTSCALE
 40
1.0
  9
$ATTMODE
 70
     1
  9
$TEXTSIZE
 40
3.0
  9
$TRACEWID
 40
0.05
  9
$TEXTSTYLE
  7
Tiimes New Roman
  9
$CLAYER
  8
anden adm grænse
  9
$CELTYPE
  6
Continuous
  9
$CECOLOR
 62
   214
  9
$CELTSCALE
 40
1.0
  9
$DISPSILH
 70
     0
  9
$DIMSCALE
 40
1.0
  9
$DIMASZ
 40
3.0
  9
$DIMEXO
 40
1.5
  9
$DIMDLI
 40
0.0
  9
$DIMRND
 40
0.0
  9
$DIMDLE
 40
0.0
  9
$DIMEXE
 40
1.5
  9
$DIMTP
 40
0.0
  9
$DIMTM
 40
0.0
  9
$DIMTXT
 40
3.0
  9
$DIMCEN
 40
0.09
  9
$DIMTSZ
 40
0.0
  9
$DIMTOL
 70
     0
  9
$DIMLIM
 70
     0
  9
$DIMTIH
 70
     0
  9
$DIMTOH
 70
     0
  9
$DIMSE1
 70
     0
  9
$DIMSE2
 70
     0
  9
$DIMTAD
 70
     0
  9
$DIMZIN
 70
     3
  9
$DIMBLK
  1
TerminatorOpen_0.5
  9
$DIMASO
 70
     1
  9
$DIMSHO
 70
     1
  9
$DIMPOST
  1

  9
$DIMAPOST
  1

  9
$DIMALT
 70
     0
  9
$DIMALTD
 70
     2
  9
$DIMALTF
 40
1.0
  9
$DIMLFAC
 40
1.0
  9
$DIMTOFL
 70
     0
  9
$DIMTVP
 40
0.0
  9
$DIMTIX
 70
     0
  9
$DIMSOXD
 70
     0
  9
$DIMSAH
 70
     0
  9
$DIMBLK1
  1

  9
$DIMBLK2
  1

  9
$DIMSTYLE
  2
Standard
  9
$DIMCLRD
 70
     0
  9
$DIMCLRE
 70
     0
  9
$DIMCLRT
 70
     0
  9
$DIMTFAC
 40
1.0
  9
$DIMGAP
 40
1.5
  9
$DIMJUST
 70
     0
  9
$DIMSD1
 70
     0
  9
$DIMSD2
 70
     0
  9
$DIMTOLJ
 70
     1
  9
$DIMTZIN
 70
     3
  9
$DIMALTZ
 70
    15
  9
$DIMALTTZ
 70
    15
  9
$DIMUPT
 70
     0
  9
$DIMDEC
 70
     0
  9
$DIMTDEC
 70
     0
  9
$DIMALTU
 70
     2
  9
$DIMALTTD
 70
     2
  9
$DIMTXSTY
  7
Tiimes New Roman
  9
$DIMAUNIT
 70
     0
  9
$DIMADEC
 70
     4
  9
$DIMALTRND
 40
0.0
  9
$DIMAZIN
 70
     3
  9
$DIMDSEP
 70
     0
  9
$DIMATFIT
 70
     1
  9
$DIMFRAC
 70
     2
  9
$DIMLDRBLK
  1
TerminatorOpen_0.5
  9
$DIMLUNIT
 70
     2
  9
$DIMLWD
 70
    -2
  9
$DIMLWE
 70
    -2
  9
$DIMTMOVE
 70
     0
  9
$LUNITS
 70
     2
  9
$LUPREC
 70
     3
  9
$SKETCHINC
 40
0.1
  9
$FILLETRAD
 40
0.5
  9
$AUNITS
 70
     0
  9
$AUPREC
 70
     4
  9
$MENU
  1
.
  9
$ELEVATION
 40
0.0
  9
$PELEVATION
 40
0.0
  9
$THICKNESS
 40
0.0
  9
$LIMCHECK
 70
     0
  9
$CHAMFERA
 40
0.5
  9
$CHAMFERB
 40
0.5
  9
$CHAMFERC
 40
1.0
  9
$CHAMFERD
 40
0.0
  9
$SKPOLY
 70
     0
  9
$TDCREATE
 40
2451789.579135370
  9
$TDUCREATE
 40
2451789.537468704
  9
$TDUPDATE
 40
2455309.620497720
  9
$TDUUPDATE
 40
2455309.578831053
  9
$TDINDWG
 40
0.0006769792
  9
$TDUSRTIMER
 40
0.0006768056
  9
$USRTIMER
 70
     1
  9
$ANGBASE
 50
0.0
  9
$ANGDIR
 70
     0
  9
$PDMODE
 70
     0
  9
$PDSIZE
 40
0.0
  9
$PLINEWID
 40
0.0
  9
$SPLFRAME
 70
     0
  9
$SPLINETYPE
 70
     6
  9
$SPLINESEGS
 70
     8
  9
$HANDSEED
  5
4579
  9
$SURFTAB1
 70
     6
  9
$SURFTAB2
 70
     6
  9
$SURFTYPE
 70
     6
  9
$SURFU
 70
     6
  9
$SURFV
 70
     6
  9
$UCSBASE
  2

  9
$UCSNAME
  2

  9
$UCSORG
 10
0.0
 20
0.0
 30
0.0
  9
$UCSXDIR
 10
1.0
 20
0.0
 30
0.0
  9
$UCSYDIR
 10
0.0
 20
1.0
 30
0.0
  9
$UCSORTHOREF
  2

  9
$UCSORTHOVIEW
 70
     0
  9
$UCSORGTOP
 10
0.0
 20
0.0
 30
0.0
  9
$UCSORGBOTTOM
 10
0.0
 20
0.0
 30
0.0
  9
$UCSORGLEFT
 10
0.0
 20
0.0
 30
0.0
  9
$UCSORGRIGHT
 10
0.0
 20
0.0
 30
0.0
  9
$UCSORGFRONT
 10
0.0
 20
0.0
 30
0.0
  9
$UCSORGBACK
 10
0.0
 20
0.0
 30
0.0
  9
$PUCSBASE
  2

  9
$PUCSNAME
  2

  9
$PUCSORG
 10
0.0
 20
0.0
 30
0.0
  9
$PUCSXDIR
 10
1.0
 20
0.0
 30
0.0
  9
$PUCSYDIR
 10
0.0
 20
1.0
 30
0.0
  9
$PUCSORTHOREF
  2

  9
$PUCSORTHOVIEW
 70
     0
  9
$PUCSORGTOP
 10
0.0
 20
0.0
 30
0.0
  9
$PUCSORGBOTTOM
 10
0.0
 20
0.0
 30
0.0
  9
$PUCSORGLEFT
 10
0.0
 20
0.0
 30
0.0
  9
$PUCSORGRIGHT
 10
0.0
 20
0.0
 30
0.0
  9
$PUCSORGFRONT
 10
0.0
 20
0.0
 30
0.0
  9
$PUCSORGBACK
 10
0.0
 20
0.0
 30
0.0
  9
$USERI1
 70
     0
  9
$USERI2
 70
     0
  9
$USERI3
 70
     0
  9
$USERI4
 70
     0
  9
$USERI5
 70
     0
  9
$USERR1
 40
0.0
  9
$USERR2
 40
0.0
  9
$USERR3
 40
0.0
  9
$USERR4
 40
0.0
  9
$USERR5
 40
0.0
  9
$WORLDVIEW
 70
     1
  9
$SHADEDGE
 70
     3
  9
$SHADEDIF
 70
    70
  9
$TILEMODE
 70
     1
  9
$MAXACTVP
 70
    64
  9
$PINSBASE
 10
0.0
 20
0.0
 30
0.0
  9
$PLIMCHECK
 70
     0
  9
$PEXTMIN
 10
1.000000E+20
 20
1.000000E+20
 30
1.000000E+20
  9
$PEXTMAX
 10
-1.000000E+20
 20
-1.000000E+20
 30
-1.000000E+20
  9
$PLIMMIN
 10
0.0
 20
0.0
  9
$PLIMMAX
 10
12.0
 20
9.0
  9
$UNITMODE
 70
     0
  9
$VISRETAIN
 70
     1
  9
$PLINEGEN
 70
     0
  9
$PSLTSCALE
 70
     0
  9
$TREEDEPTH
 70
  3020
  9
$CMLSTYLE
  2
STANDARD
  9
$CMLJUST
 70
     0
  9
$CMLSCALE
 40
1.0
  9
$PROXYGRAPHICS
 70
     1
  9
$MEASUREMENT
 70
     0
  9
$CELWEIGHT
370
     0
  9
$ENDCAPS
280
     0
  9
$JOINSTYLE
280
     0
  9
$LWDISPLAY
290
     1
  9
$INSUNITS
 70
     6
  9
$HYPERLINKBASE
  1

  9
$STYLESHEET
  1

  9
$XEDIT
290
     1
  9
$CEPSNTYPE
380
     0
  9
$PSTYLEMODE
290
     1
  9
$FINGERPRINTGUID
  2
{D7F0CECA-8FF1-4E5E-9A4B-49A691F29815}
  9
$VERSIONGUID
  2
{0D86ADF8-30CF-455E-BB89-52B6B0EBE9C3}
  9
$EXTNAMES
290
     1
  9
$PSVPSCALE
 40
0.0
  9
$OLESTARTUP
290
     0
  0
ENDSEC
  0
SECTION
  2
CLASSES
  0
CLASS
  1
ACDBDICTIONARYWDFLT
  2
AcDbDictionaryWithDefault
  3
ObjectDBX Classes
 90
        0
280
     0
281
     0
  0
CLASS
  1
ACDBPLACEHOLDER
  2
AcDbPlaceHolder
  3
ObjectDBX Classes
 90
        0
280
     0
281
     0
  0
CLASS
  1
LAYOUT
  2
AcDbLayout
  3
ObjectDBX Classes
 90
        0
280
     0
281
     0
  0
CLASS
  1
IMAGE
  2
AcDbRasterImage
  3
ISM
 90
    34943
280
     0
281
     1
  0
CLASS
  1
DICTIONARYVAR
  2
AcDbDictionaryVar
  3
ObjectDBX Classes
 90
        0
280
     0
281
     0
  0
CLASS
  1
RASTERVARIABLES
  2
AcDbRasterVariables
  3
ISM
 90
    32768
280
     0
281
     0
  0
CLASS
  1
IMAGEDEF
  2
AcDbRasterImageDef
  3
ISM
 90
    32768
280
     0
281
     0
  0
CLASS
  1
IMAGEDEF_REACTOR
  2
AcDbRasterImageDefReactor
  3
ISM
 90
    32769
280
     0
281
     0
  0
CLASS
  1
IDBUFFER
  2
AcDbIdBuffer
  3
ObjectDBX Classes
 90
    32768
280
     0
281
     0
  0
CLASS
  1
SPATIAL_FILTER
  2
AcDbSpatialFilter
  3
ObjectDBX Classes
 90
    32768
280
     0
281
     0
  0
CLASS
  1
SORTENTSTABLE
  2
AcDbSortentsTable
  3
ObjectDBX Classes
 90
        0
280
     0
281
     0
  0
CLASS
  1
LAYER_INDEX
  2
AcDbLayerIndex
  3
ObjectDBX Classes
 90
    32768
280
     0
281
     0
  0
CLASS
  1
SPATIAL_INDEX
  2
AcDbSpatialIndex
  3
ObjectDBX Classes
 90
    32768
280
     0
281
     0
  0
CLASS
  1
PLOTSETTINGS
  2
AcDbPlotSettings
  3
ObjectDBX Classes
 90
    32768
280
     0
281
     0
  0
CLASS
  1
VBA_PROJECT
  2
AcDbVbaProject
  3
acad
 90
    32768
280
     0
281
     0
  0
CLASS
  1
WIPEOUT
  2
AcDbWipeout
  3
WipeOut|Product Desc: Object Enabler for WipeOut entity | Company: Autodesk, Inc. | WEB Address: www.autodesk.com
 90
    34943
280
     0
281
     1
  0
CLASS
  1
WIPEOUTVARIABLES
  2
AcDbWipeoutVariables
  3
"WipeOut|Product Desc:     WipeOut Dbx Application|Company:          Autodesk, Inc.|WEB Address:      www.autodesk.com"
 90
    32768
280
     0
281
     0
  0
CLASS
  1
RTEXT
  2
RText
  3
RText|AutoCAD Express Tool|expresstools@autodesk.com
 90
    32768
280
     1
281
     1
  0
CLASS
  1
ARCALIGNEDTEXT
  2
AcDbArcAlignedText
  3
ATEXT|AutoCAD Express Tool|expresstools@autodesk.com
 90
    32768
280
     1
281
     1
  0
CLASS
  1
MATERIAL
  2
AcDbMaterial
  3
ObjectDBX Classes
 90
     1153
280
     0
281
     0
  0
CLASS
  1
VISUALSTYLE
  2
AcDbVisualStyle
  3
ObjectDBX Classes
 90
     4095
280
     0
281
     0
  0
CLASS
  1
TABLESTYLE
  2
AcDbTableStyle
  3
ObjectDBX Classes
 90
     4095
280
     0
281
     0
  0
CLASS
  1
SCALE
  2
AcDbScale
  3
ObjectDBX Classes
 90
     1153
280
     0
281
     0
  0
CLASS
  1
MLEADERSTYLE
  2
AcDbMLeaderStyle
  3
ACDB_MLEADERSTYLE_CLASS
 90
    36863
280
     0
281
     0
  0
CLASS
  1
ACDBSECTIONVIEWSTYLE
  2
AcDbSectionViewStyle
  3
ObjectDBX Classes
 90
    33793
280
     0
281
     0
  0
CLASS
  1
ACDBDETAILVIEWSTYLE
  2
AcDbDetailViewStyle
  3
ObjectDBX Classes
 90
    33793
280
     0
281
     0
  0
CLASS
  1
CELLSTYLEMAP
  2
AcDbCellStyleMap
  3
ObjectDBX Classes
 90
     1152
280
     0
281
     0
  0
ENDSEC
  0
SECTION
  2
TABLES
  0
TABLE
  2
VPORT
  5
44D0
330
0
100
AcDbSymbolTable
 70
     2
  0
VPORT
  5
49
330
44D0
100
AcDbSymbolTableRecord
100
AcDbViewportTableRecord
  2
*ACTIVE
 70
     0
 10
0.0
 20
0.0
 11
1.0
 21
1.0
 12
-250687.533089
 22
150523.895561
 13
0.0
 23
0.0
 14
1.0
 24
1.0
 15
1.0
 25
1.0
 16
0.0
 26
0.0
 36
1.0
 17
0.0
 27
0.0
 37
0.0
 40
1373.922957
 41
2.195572
 42
50.0
 43
0.0
 44
0.0
 50
0.0
 51
0.0
 71
     0
 72
   100
 73
     1
 74
     0
 75
     0
 76
     0
 77
     0
 78
     1
281
     0
 65
     1
110
129.9219141029829
120
-801.368915195105
130
0.0
111
1.0
121
0.0
131
0.0
112
0.0
122
1.0
132
0.0
 79
     0
146
0.0
  0
ENDTAB
  0
TABLE
  2
LTYPE
  5
44CB
330
0
100
AcDbSymbolTable
 70
     3
  0
LTYPE
  5
44CC
330
44CB
100
AcDbSymbolTableRecord
100
AcDbLinetypeTableRecord
  2
ByBlock
 70
     0
  3

 72
    65
 73
     0
 40
0.0
  0
LTYPE
  5
44CD
330
44CB
100
AcDbSymbolTableRecord
100
AcDbLinetypeTableRecord
  2
ByLayer
 70
     0
  3

 72
    65
 73
     0
 40
0.0
  0
LTYPE
  5
44BF
330
44CB
100
AcDbSymbolTableRecord
100
AcDbLinetypeTableRecord
  2
Continuous
 70
     0
  3
Solid line
 72
    65
 73
     0
 40
0.0
  0
LTYPE
  5
4506
330
44CB
100
AcDbSymbolTableRecord
100
AcDbLinetypeTableRecord
  2
DGN Style 3
 70
     0
  3
Dgn Style 3
 72
    65
 73
     2
 40
42.231654
 49
30.165467
 74
     0
 49
-12.066187
 74
     0
  0
LTYPE
  5
4507
330
44CB
100
AcDbSymbolTableRecord
100
AcDbLinetypeTableRecord
  2
DGN Style 1
 70
     0
  3
Dgn Style 1
 72
    65
 73
     2
 40
18.129446
 49
0.030165
 74
     0
 49
-18.09928
 74
     0
  0
ENDTAB
  0
TABLE
  2
LAYER
  5
44C7
102
{ACAD_XDICTIONARY
360
4508
102
}
330
0
100
AcDbSymbolTable
 70
    14
  0
LAYER
  5
44B2
330
44C7
100
AcDbSymbolTableRecord
100
AcDbLayerTableRecord
  2
0
 70
     0
 62
     7
  6
Continuous
370
    -3
390
44B3
1001
AcCmTransparency
1071
 33554687
  0
LAYER
  5
402B
330
44C7
100
AcDbSymbolTableRecord
100
AcDbLayerTableRecord
  2
Parcelhusnumre
 70
     0
 62
   254
  6
Continuous
370
     0
390
44B3
1001
AcCmTransparency
1071
 33554687
  0
LAYER
  5
402C
330
44C7
100
AcDbSymbolTableRecord
100
AcDbLayerTableRecord
  2
diverse tekst
 70
     0
 62
     7
  6
Continuous
370
     0
390
44B3
1001
AcCmTransparency
1071
 33554687
  0
LAYER
  5
4050
330
44C7
100
AcDbSymbolTableRecord
100
AcDbLayerTableRecord
  2
Måleblad fuld 0_15
 70
     0
 62
     7
  6
Continuous
370
     0
390
44B3
1001
AcCmTransparency
1071
 33554687
  0
LAYER
  5
4066
330
44C7
100
AcDbSymbolTableRecord
100
AcDbLayerTableRecord
  2
Måleblad tekst kursiv 0_15
 70
     0
 62
     7
  6
Continuous
370
     0
390
44B3
1001
AcCmTransparency
1071
 33554687
  0
LAYER
  5
3F54
330
44C7
100
AcDbSymbolTableRecord
100
AcDbLayerTableRecord
  2
Måleblad fuld 0_35
 70
     0
 62
     7
  6
Continuous
370
    13
390
44B3
1001
AcCmTransparency
1071
 33554687
  0
LAYER
  5
3F66
330
44C7
100
AcDbSymbolTableRecord
100
AcDbLayerTableRecord
  2
Måleblad stip 0_15
 70
     0
 62
     7
  6
DGN Style 3
370
     0
390
44B3
1001
AcCmTransparency
1071
 33554687
  0
LAYER
  5
40B2
330
44C7
100
AcDbSymbolTableRecord
100
AcDbLayerTableRecord
  2
skelpkt diverse
 70
     0
 62
    13
  6
Continuous
370
     0
390
44B3
1001
AcCmTransparency
1071
 33554687
  0
LAYER
  5
40B3
330
44C7
100
AcDbSymbolTableRecord
100
AcDbLayerTableRecord
  2
skelpkt jernrør
 70
     0
 62
    13
  6
Continuous
370
     0
390
44B3
1001
AcCmTransparency
1071
 33554687
  0
LAYER
  5
40F7
330
44C7
100
AcDbSymbolTableRecord
100
AcDbLayerTableRecord
  2
Punktnummer
 70
     0
 62
     7
  6
DGN Style 1
370
    13
390
44B3
1001
AcCmTransparency
1071
 33554687
  0
LAYER
  5
39C0
330
44C7
100
AcDbSymbolTableRecord
100
AcDbLayerTableRecord
  2
Kosmetikmatrikelnummer + 1 2000
 70
     0
 62
     7
  6
Continuous
370
     0
390
44B3
1001
AcCmTransparency
1071
 33554687
  0
LAYER
  5
4181
330
44C7
100
AcDbSymbolTableRecord
100
AcDbLayerTableRecord
  2
Skelpunkt øvrige mål (Kl 2)
 70
     0
 62
   173
  6
Continuous
370
    13
390
44B3
1001
AcCmTransparency
1071
 33554687
  0
LAYER
  5
43CB
330
44C7
100
AcDbSymbolTableRecord
100
AcDbLayerTableRecord
  2
bygning - sten
 70
     0
 62
     1
  6
Continuous
370
    30
390
44B3
1001
AcCmTransparency
1071
 33554687
  0
LAYER
  5
442A
330
44C7
100
AcDbSymbolTableRecord
100
AcDbLayerTableRecord
  2
anden adm grænse
 70
     0
 62
   214
  6
Continuous
370
     0
390
44B3
1001
AcCmTransparency
1071
 33554687
  0
ENDTAB
  0
TABLE
  2
STYLE
  5
44C8
330
0
100
AcDbSymbolTable
 70
     6
  0
STYLE
  5
44C9
330
44C8
100
AcDbSymbolTableRecord
100
AcDbTextStyleTableRecord
  2
Standard
 70
     0
 40
0.0
 41
1.0
 50
0.0
 71
     0
 42
3.0
  3
Arial.ttf
  4

1001
ACAD
1000
Arial
1071
       39
  0
STYLE
  5
3982
330
44C8
100
AcDbSymbolTableRecord
100
AcDbTextStyleTableRecord
  2
Tiimes New Roman
 70
     0
 40
2.0
 41
1.0
 50
0.0
 71
     0
 42
3.0
  3
Times New Roman.ttf
  4

1001
ACAD
1000
Times New Roman
1071
       23
  0
STYLE
  5
4091
330
44C8
100
AcDbSymbolTableRecord
100
AcDbTextStyleTableRecord
  2
Times New Roman
 70
     0
 40
1.0
 41
1.0
 50
0.0
 71
     0
 42
0.2
  3
Times New Roman.ttf
  4

1001
ACAD
1000
Times New Roman
1071
       23
  0
STYLE
  5
4540
330
44C8
100
AcDbSymbolTableRecord
100
AcDbTextStyleTableRecord
  2
Style-MatrikArial
 70
     0
 40
0.0
 41
1.0
 50
0.0
 71
     0
 42
3.0
  3

  4

1001
ACAD
1000
MatrikArial
1071
       39
  0
STYLE
  5
4546
330
44C8
100
AcDbSymbolTableRecord
100
AcDbTextStyleTableRecord
  2
Style-Arial Narrow
 70
     0
 40
0.0
 41
1.0
 50
0.0
 71
     0
 42
3.0
  3
Arial Narrow.ttf
  4

1001
ACAD
1000
Arial Narrow
1071
       39
  0
STYLE
  5
454E
330
44C8
100
AcDbSymbolTableRecord
100
AcDbTextStyleTableRecord
  2
Style-Arial
 70
     0
 40
0.0
 41
1.0
 50
0.0
 71
     0
 42
3.0
  3
Arial.ttf
  4

1001
ACAD
1000
Arial
1071
       39
  0
ENDTAB
  0
TABLE
  2
VIEW
  5
44CE
330
0
100
AcDbSymbolTable
 70
     0
  0
ENDTAB
  0
TABLE
  2
UCS
  5
44CF
330
0
100
AcDbSymbolTable
 70
     1
  0
UCS
  5
394C
330
44CF
100
AcDbSymbolTableRecord
100
AcDbUCSTableRecord
  2
SYS34
 70
     0
 10
0.0
 20
0.0
 30
0.0
 11
0.0000000000000001
 21
1.0
 31
0.0
 12
-1.0
 22
0.0000000000000001
 32
0.0
 79
     0
146
0.0
  0
ENDTAB
  0
TABLE
  2
APPID
  5
44D4
330
0
100
AcDbSymbolTable
 70
     2
  0
APPID
  5
44D5
330
44D4
100
AcDbSymbolTableRecord
100
AcDbRegAppTableRecord
  2
ACAD
 70
     0
  0
APPID
  5
4555
330
44D4
100
AcDbSymbolTableRecord
100
AcDbRegAppTableRecord
  2
AcCmTransparency
 70
     0
  0
ENDTAB
  0
TABLE
  2
DIMSTYLE
  5
44D6
330
0
100
AcDbSymbolTable
 70
     1
100
AcDbDimStyleTable
 71
     0
  0
DIMSTYLE
105
44F3
330
44D6
100
AcDbSymbolTableRecord
100
AcDbDimStyleTableRecord
  2
Standard
 70
     0
340
44C9
  0
ENDTAB
  0
TABLE
  2
BLOCK_RECORD
  5
44AF
330
0
100
AcDbSymbolTable
 70
    27
  0
BLOCK_RECORD
  5
44B0
102
{ACAD_XDICTIONARY
360
4552
102
}
330
44AF
100
AcDbSymbolTableRecord
100
AcDbBlockTableRecord
  2
*Model_Space
340
44C1
  0
BLOCK_RECORD
  5
44C3
330
44AF
100
AcDbSymbolTableRecord
100
AcDbBlockTableRecord
  2
*PAPER_SPACE
340
44C6
  0
BLOCK_RECORD
  5
3FBB
330
44AF
100
AcDbSymbolTableRecord
100
AcDbBlockTableRecord
  2
*U0
340
0
  0
BLOCK_RECORD
  5
3FC2
330
44AF
100
AcDbSymbolTableRecord
100
AcDbBlockTableRecord
  2
*U1
340
0
  0
BLOCK_RECORD
  5
3FC7
330
44AF
100
AcDbSymbolTableRecord
100
AcDbBlockTableRecord
  2
*U2
340
0
  0
BLOCK_RECORD
  5
3FCC
330
44AF
100
AcDbSymbolTableRecord
100
AcDbBlockTableRecord
  2
*U3
340
0
  0
BLOCK_RECORD
  5
3FD1
330
44AF
100
AcDbSymbolTableRecord
100
AcDbBlockTableRecord
  2
*U4
340
0
  0
BLOCK_RECORD
  5
3FD6
330
44AF
100
AcDbSymbolTableRecord
100
AcDbBlockTableRecord
  2
*U5
340
0
  0
BLOCK_RECORD
  5
3FDB
330
44AF
100
AcDbSymbolTableRecord
100
AcDbBlockTableRecord
  2
*U6
340
0
  0
BLOCK_RECORD
  5
3FE0
330
44AF
100
AcDbSymbolTableRecord
100
AcDbBlockTableRecord
  2
*U7
340
0
  0
BLOCK_RECORD
  5
3FE5
330
44AF
100
AcDbSymbolTableRecord
100
AcDbBlockTableRecord
  2
*U8
340
0
  0
BLOCK_RECORD
  5
3FEA
330
44AF
100
AcDbSymbolTableRecord
100
AcDbBlockTableRecord
  2
*U9
340
0
  0
BLOCK_RECORD
  5
3FEF
330
44AF
100
AcDbSymbolTableRecord
100
AcDbBlockTableRecord
  2
*U10
340
0
  0
BLOCK_RECORD
  5
3FF4
330
44AF
100
AcDbSymbolTableRecord
100
AcDbBlockTableRecord
  2
*U11
340
0
  0
BLOCK_RECORD
  5
3FF9
330
44AF
100
AcDbSymbolTableRecord
100
AcDbBlockTableRecord
  2
*U12
340
0
  0
BLOCK_RECORD
  5
3FFE
330
44AF
100
AcDbSymbolTableRecord
100
AcDbBlockTableRecord
  2
*U13
340
0
  0
BLOCK_RECORD
  5
4003
330
44AF
100
AcDbSymbolTableRecord
100
AcDbBlockTableRecord
  2
*U14
340
0
  0
BLOCK_RECORD
  5
4008
330
44AF
100
AcDbSymbolTableRecord
100
AcDbBlockTableRecord
  2
*U15
340
0
  0
BLOCK_RECORD
  5
400D
330
44AF
100
AcDbSymbolTableRecord
100
AcDbBlockTableRecord
  2
*U16
340
0
  0
BLOCK_RECORD
  5
4012
330
44AF
100
AcDbSymbolTableRecord
100
AcDbBlockTableRecord
  2
*U17
340
0
  0
BLOCK_RECORD
  5
4017
330
44AF
100
AcDbSymbolTableRecord
100
AcDbBlockTableRecord
  2
*U18
340
0
  0
BLOCK_RECORD
  5
401C
330
44AF
100
AcDbSymbolTableRecord
100
AcDbBlockTableRecord
  2
*U19
340
0
  0
BLOCK_RECORD
  5
4021
330
44AF
100
AcDbSymbolTableRecord
100
AcDbBlockTableRecord
  2
*U20
340
0
  0
BLOCK_RECORD
  5
4026
330
44AF
100
AcDbSymbolTableRecord
100
AcDbBlockTableRecord
  2
*U21
340
0
  0
BLOCK_RECORD
  5
4538
330
44AF
100
AcDbSymbolTableRecord
100
AcDbBlockTableRecord
  2
TerminatorOpen_0.5
340
0
  0
BLOCK_RECORD
  5
4543
330
44AF
100
AcDbSymbolTableRecord
100
AcDbBlockTableRecord
  2
Nordpil
340
0
102
{BLKREFS
331
406B
102
}
  0
BLOCK_RECORD
  5
4548
330
44AF
100
AcDbSymbolTableRecord
100
AcDbBlockTableRecord
  2
RETLIM
340
0
102
{BLKREFS
331
40B5
331
40BB
331
40C1
331
40C7
331
40CD
331
40D3
331
40D9
331
40DF
331
4352
331
435E
331
4366
331
436C
331
4374
331
437B
331
438D
331
43A0
331
42EE
331
42F4
331
42FB
331
4302
331
4308
331
430F
331
4316
331
431C
331
4324
331
432B
331
4332
331
4340
331
4346
331
434C
331
42D2
331
42D9
331
42E0
331
42E7
102
}
  0
BLOCK_RECORD
  5
454B
330
44AF
100
AcDbSymbolTableRecord
100
AcDbBlockTableRecord
  2
SKELP
340
0
102
{BLKREFS
331
4182
331
4184
331
4186
331
4188
331
418A
331
418C
331
418E
331
4190
331
4192
331
4194
331
4196
331
4198
331
419A
331
419C
331
419E
331
41A0
331
41A2
331
41A4
331
41A6
331
41A8
331
41AA
331
41AC
331
41AE
331
41B0
331
41B2
331
41B4
331
41B6
331
41B8
331
41BA
331
41BC
331
41BE
331
41C0
331
41C2
331
41C4
331
41C6
331
41C8
331
41CA
331
41CC
331
41CE
331
41D0
331
41D2
331
41D4
331
41D6
331
41D8
331
41DA
331
41DC
331
41DE
331
41E0
331
41E2
331
41E4
331
41E6
331
41E8
331
41EA
331
41EC
331
41EE
331
41F0
331
41F2
331
41F4
331
41F6
331
41F8
331
41FA
331
41FC
331
41FE
331
4200
331
4202
331
4204
331
4206
331
4208
331
420A
331
420C
331
420E
331
4210
331
4212
331
4214
331
4216
331
4218
331
421A
331
421C
331
421E
331
4220
331
4222
331
4224
331
4226
331
4228
331
422A
331
422C
331
422E
331
4230
331
4232
331
4234
331
4236
331
4238
331
423A
331
423C
331
423E
331
4240
331
4242
331
4244
331
4246
331
4248
331
424A
331
424C
331
424E
331
4250
331
4252
331
4254
331
4256
331
4258
331
425A
331
425C
331
425E
331
4260
331
4262
331
4264
331
4266
331
4268
331
426A
331
426C
331
426E
331
4270
331
4272
331
4274
331
4276
331
4278
331
427A
331
427C
331
427E
331
4280
331
4282
331
4284
331
4286
331
4288
331
428A
331
428C
331
428E
331
4290
331
42C7
331
42C9
331
42CB
331
42CD
331
42CF
102
}
  0
BLOCK_RECORD
  5
454F
330
44AF
100
AcDbSymbolTableRecord
100
AcDbBlockTableRecord
  2
CIRKEL
340
0
102
{BLKREFS
331
43AC
331
43B0
102
}
  0
ENDTAB
  0
ENDSEC
  0
SECTION
  2
BLOCKS
  0
BLOCK
  5
44B1
330
44B0
100
AcDbEntity
  8
0
100
AcDbBlockBegin
  2
*Model_Space
 70
     0
 10
0.0
 20
0.0
 30
0.0
  3
*Model_Space
  1

  0
ENDBLK
  5
44C0
330
44B0
100
AcDbEntity
  8
0
100
AcDbBlockEnd
  0
BLOCK
  5
44C4
330
44C3
100
AcDbEntity
 67
     1
  8
0
100
AcDbBlockBegin
  2
*PAPER_SPACE
 70
     0
 10
0.0
 20
0.0
 30
0.0
  3
*PAPER_SPACE
  1

  0
ENDBLK
  5
44C5
330
44C3
100
AcDbEntity
 67
     1
  8
0
100
AcDbBlockEnd
  0
BLOCK
  5
450B
330
3FBB
100
AcDbEntity
  8
0
100
AcDbBlockBegin
  2
*U0
 70
     1
 10
0.0
 20
0.0
 30
0.0
  3
*U0
  1

  0
TEXT
  5
3FBC
330
3FBB
100
AcDbEntity
  8
Parcelhusnumre
100
AcDbText
 10
-0.64946
 20
-1.249634
 30
0.0
 40
2.5
  1
5
100
AcDbText
  0
CIRCLE
  5
3FBD
330
3FBB
100
AcDbEntity
  8
Parcelhusnumre
100
AcDbCircle
 10
0.000312
 20
0.000366
 30
0.0
 40
2.5
  0
ENDBLK
  5
450C
330
3FBB
100
AcDbEntity
  8
0
100
AcDbBlockEnd
  0
BLOCK
  5
450E
330
3FC2
100
AcDbEntity
  8
0
100
AcDbBlockBegin
  2
*U1
 70
     1
 10
0.0
 20
0.0
 30
0.0
  3
*U1
  1

  0
TEXT
  5
3FC3
330
3FC2
100
AcDbEntity
  8
Parcelhusnumre
100
AcDbText
 10
-0.64946
 20
-1.249634
 30
0.0
 40
2.5
  1
4
100
AcDbText
  0
CIRCLE
  5
3FC4
330
3FC2
100
AcDbEntity
  8
Parcelhusnumre
100
AcDbCircle
 10
0.000312
 20
0.000366
 30
0.0
 40
2.5
  0
ENDBLK
  5
450F
330
3FC2
100
AcDbEntity
  8
0
100
AcDbBlockEnd
  0
BLOCK
  5
4510
330
3FC7
100
AcDbEntity
  8
0
100
AcDbBlockBegin
  2
*U2
 70
     1
 10
0.0
 20
0.0
 30
0.0
  3
*U2
  1

  0
TEXT
  5
3FC8
330
3FC7
100
AcDbEntity
  8
Parcelhusnumre
100
AcDbText
 10
-0.64946
 20
-1.249634
 30
0.0
 40
2.5
  1
3
100
AcDbText
  0
CIRCLE
  5
3FC9
330
3FC7
100
AcDbEntity
  8
Parcelhusnumre
100
AcDbCircle
 10
0.000312
 20
0.000366
 30
0.0
 40
2.5
  0
ENDBLK
  5
4511
330
3FC7
100
AcDbEntity
  8
0
100
AcDbBlockEnd
  0
BLOCK
  5
4512
330
3FCC
100
AcDbEntity
  8
0
100
AcDbBlockBegin
  2
*U3
 70
     1
 10
0.0
 20
0.0
 30
0.0
  3
*U3
  1

  0
TEXT
  5
3FCD
330
3FCC
100
AcDbEntity
  8
Parcelhusnumre
100
AcDbText
 10
-0.64946
 20
-1.249634
 30
0.0
 40
2.5
  1
1
100
AcDbText
  0
CIRCLE
  5
3FCE
330
3FCC
100
AcDbEntity
  8
Parcelhusnumre
100
AcDbCircle
 10
0.000312
 20
0.000366
 30
0.0
 40
2.5
  0
ENDBLK
  5
4513
330
3FCC
100
AcDbEntity
  8
0
100
AcDbBlockEnd
  0
BLOCK
  5
4514
330
3FD1
100
AcDbEntity
  8
0
100
AcDbBlockBegin
  2
*U4
 70
     1
 10
0.0
 20
0.0
 30
0.0
  3
*U4
  1

  0
TEXT
  5
3FD2
330
3FD1
100
AcDbEntity
  8
Parcelhusnumre
100
AcDbText
 10
-0.64946
 20
-1.249634
 30
0.0
 40
2.5
  1
2
100
AcDbText
  0
CIRCLE
  5
3FD3
330
3FD1
100
AcDbEntity
  8
Parcelhusnumre
100
AcDbCircle
 10
0.000312
 20
0.000366
 30
0.0
 40
2.5
  0
ENDBLK
  5
4515
330
3FD1
100
AcDbEntity
  8
0
100
AcDbBlockEnd
  0
BLOCK
  5
4516
330
3FD6
100
AcDbEntity
  8
0
100
AcDbBlockBegin
  2
*U5
 70
     1
 10
0.0
 20
0.0
 30
0.0
  3
*U5
  1

  0
TEXT
  5
3FD7
330
3FD6
100
AcDbEntity
  8
Parcelhusnumre
100
AcDbText
 10
-1.857649
 20
-1.250369
 30
0.0
 40
2.5
  1
11
100
AcDbText
  0
CIRCLE
  5
3FD8
330
3FD6
100
AcDbEntity
  8
Parcelhusnumre
100
AcDbCircle
 10
0.000202
 20
-0.000369
 30
0.0
 40
2.5
  0
ENDBLK
  5
4517
330
3FD6
100
AcDbEntity
  8
0
100
AcDbBlockEnd
  0
BLOCK
  5
4518
330
3FDB
100
AcDbEntity
  8
0
100
AcDbBlockBegin
  2
*U6
 70
     1
 10
0.0
 20
0.0
 30
0.0
  3
*U6
  1

  0
TEXT
  5
3FDC
330
3FDB
100
AcDbEntity
  8
Parcelhusnumre
100
AcDbText
 10
-0.64946
 20
-1.249634
 30
0.0
 40
2.5
  1
6
100
AcDbText
  0
CIRCLE
  5
3FDD
330
3FDB
100
AcDbEntity
  8
Parcelhusnumre
100
AcDbCircle
 10
0.000312
 20
0.000366
 30
0.0
 40
2.5
  0
ENDBLK
  5
4519
330
3FDB
100
AcDbEntity
  8
0
100
AcDbBlockEnd
  0
BLOCK
  5
451A
330
3FE0
100
AcDbEntity
  8
0
100
AcDbBlockBegin
  2
*U7
 70
     1
 10
0.0
 20
0.0
 30
0.0
  3
*U7
  1

  0
TEXT
  5
3FE1
330
3FE0
100
AcDbEntity
  8
Parcelhusnumre
100
AcDbText
 10
-0.64946
 20
-1.249634
 30
0.0
 40
2.5
  1
7
100
AcDbText
  0
CIRCLE
  5
3FE2
330
3FE0
100
AcDbEntity
  8
Parcelhusnumre
100
AcDbCircle
 10
0.000312
 20
0.000366
 30
0.0
 40
2.5
  0
ENDBLK
  5
451B
330
3FE0
100
AcDbEntity
  8
0
100
AcDbBlockEnd
  0
BLOCK
  5
451C
330
3FE5
100
AcDbEntity
  8
0
100
AcDbBlockBegin
  2
*U8
 70
     1
 10
0.0
 20
0.0
 30
0.0
  3
*U8
  1

  0
TEXT
  5
3FE6
330
3FE5
100
AcDbEntity
  8
Parcelhusnumre
100
AcDbText
 10
-1.857649
 20
-1.250369
 30
0.0
 40
2.5
  1
10
100
AcDbText
  0
CIRCLE
  5
3FE7
330
3FE5
100
AcDbEntity
  8
Parcelhusnumre
100
AcDbCircle
 10
0.000202
 20
-0.000369
 30
0.0
 40
2.5
  0
ENDBLK
  5
451D
330
3FE5
100
AcDbEntity
  8
0
100
AcDbBlockEnd
  0
BLOCK
  5
451E
330
3FEA
100
AcDbEntity
  8
0
100
AcDbBlockBegin
  2
*U9
 70
     1
 10
0.0
 20
0.0
 30
0.0
  3
*U9
  1

  0
TEXT
  5
3FEB
330
3FEA
100
AcDbEntity
  8
Parcelhusnumre
100
AcDbText
 10
-0.64946
 20
-1.249634
 30
0.0
 40
2.5
  1
9
100
AcDbText
  0
CIRCLE
  5
3FEC
330
3FEA
100
AcDbEntity
  8
Parcelhusnumre
100
AcDbCircle
 10
0.000312
 20
0.000366
 30
0.0
 40
2.5
  0
ENDBLK
  5
451F
330
3FEA
100
AcDbEntity
  8
0
100
AcDbBlockEnd
  0
BLOCK
  5
4520
330
3FEF
100
AcDbEntity
  8
0
100
AcDbBlockBegin
  2
*U10
 70
     1
 10
0.0
 20
0.0
 30
0.0
  3
*U10
  1

  0
TEXT
  5
3FF0
330
3FEF
100
AcDbEntity
  8
Parcelhusnumre
100
AcDbText
 10
-0.64946
 20
-1.249634
 30
0.0
 40
2.5
  1
8
100
AcDbText
  0
CIRCLE
  5
3FF1
330
3FEF
100
AcDbEntity
  8
Parcelhusnumre
100
AcDbCircle
 10
0.000312
 20
0.000366
 30
0.0
 40
2.5
  0
ENDBLK
  5
4521
330
3FEF
100
AcDbEntity
  8
0
100
AcDbBlockEnd
  0
BLOCK
  5
4522
330
3FF4
100
AcDbEntity
  8
0
100
AcDbBlockBegin
  2
*U11
 70
     1
 10
0.0
 20
0.0
 30
0.0
  3
*U11
  1

  0
TEXT
  5
3FF5
330
3FF4
100
AcDbEntity
  8
Parcelhusnumre
100
AcDbText
 10
-1.857649
 20
-1.250369
 30
0.0
 40
2.5
  1
22
100
AcDbText
  0
CIRCLE
  5
3FF6
330
3FF4
100
AcDbEntity
  8
Parcelhusnumre
100
AcDbCircle
 10
0.000202
 20
-0.000369
 30
0.0
 40
2.5
  0
ENDBLK
  5
4523
330
3FF4
100
AcDbEntity
  8
0
100
AcDbBlockEnd
  0
BLOCK
  5
4524
330
3FF9
100
AcDbEntity
  8
0
100
AcDbBlockBegin
  2
*U12
 70
     1
 10
0.0
 20
0.0
 30
0.0
  3
*U12
  1

  0
TEXT
  5
3FFA
330
3FF9
100
AcDbEntity
  8
Parcelhusnumre
100
AcDbText
 10
-1.857649
 20
-1.250369
 30
0.0
 40
2.5
  1
21
100
AcDbText
  0
CIRCLE
  5
3FFB
330
3FF9
100
AcDbEntity
  8
Parcelhusnumre
100
AcDbCircle
 10
0.000202
 20
-0.000369
 30
0.0
 40
2.5
  0
ENDBLK
  5
4525
330
3FF9
100
AcDbEntity
  8
0
100
AcDbBlockEnd
  0
BLOCK
  5
4526
330
3FFE
100
AcDbEntity
  8
0
100
AcDbBlockBegin
  2
*U13
 70
     1
 10
0.0
 20
0.0
 30
0.0
  3
*U13
  1

  0
TEXT
  5
3FFF
330
3FFE
100
AcDbEntity
  8
Parcelhusnumre
100
AcDbText
 10
-1.857649
 20
-1.250369
 30
0.0
 40
2.5
  1
20
100
AcDbText
  0
CIRCLE
  5
4000
330
3FFE
100
AcDbEntity
  8
Parcelhusnumre
100
AcDbCircle
 10
0.000202
 20
-0.000369
 30
0.0
 40
2.5
  0
ENDBLK
  5
4527
330
3FFE
100
AcDbEntity
  8
0
100
AcDbBlockEnd
  0
BLOCK
  5
4528
330
4003
100
AcDbEntity
  8
0
100
AcDbBlockBegin
  2
*U14
 70
     1
 10
0.0
 20
0.0
 30
0.0
  3
*U14
  1

  0
TEXT
  5
4004
330
4003
100
AcDbEntity
  8
Parcelhusnumre
100
AcDbText
 10
-1.857649
 20
-1.250369
 30
0.0
 40
2.5
  1
19
100
AcDbText
  0
CIRCLE
  5
4005
330
4003
100
AcDbEntity
  8
Parcelhusnumre
100
AcDbCircle
 10
0.000202
 20
-0.000369
 30
0.0
 40
2.5
  0
ENDBLK
  5
4529
330
4003
100
AcDbEntity
  8
0
100
AcDbBlockEnd
  0
BLOCK
  5
452A
330
4008
100
AcDbEntity
  8
0
100
AcDbBlockBegin
  2
*U15
 70
     1
 10
0.0
 20
0.0
 30
0.0
  3
*U15
  1

  0
TEXT
  5
4009
330
4008
100
AcDbEntity
  8
Parcelhusnumre
100
AcDbText
 10
-1.857649
 20
-1.250369
 30
0.0
 40
2.5
  1
18
100
AcDbText
  0
CIRCLE
  5
400A
330
4008
100
AcDbEntity
  8
Parcelhusnumre
100
AcDbCircle
 10
0.000202
 20
-0.000369
 30
0.0
 40
2.5
  0
ENDBLK
  5
452B
330
4008
100
AcDbEntity
  8
0
100
AcDbBlockEnd
  0
BLOCK
  5
452C
330
400D
100
AcDbEntity
  8
0
100
AcDbBlockBegin
  2
*U16
 70
     1
 10
0.0
 20
0.0
 30
0.0
  3
*U16
  1

  0
TEXT
  5
400E
330
400D
100
AcDbEntity
  8
Parcelhusnumre
100
AcDbText
 10
-1.857649
 20
-1.250369
 30
0.0
 40
2.5
  1
17
100
AcDbText
  0
CIRCLE
  5
400F
330
400D
100
AcDbEntity
  8
Parcelhusnumre
100
AcDbCircle
 10
0.000202
 20
-0.000369
 30
0.0
 40
2.5
  0
ENDBLK
  5
452D
330
400D
100
AcDbEntity
  8
0
100
AcDbBlockEnd
  0
BLOCK
  5
452E
330
4012
100
AcDbEntity
  8
0
100
AcDbBlockBegin
  2
*U17
 70
     1
 10
0.0
 20
0.0
 30
0.0
  3
*U17
  1

  0
TEXT
  5
4013
330
4012
100
AcDbEntity
  8
Parcelhusnumre
100
AcDbText
 10
-1.857649
 20
-1.250369
 30
0.0
 40
2.5
  1
15
100
AcDbText
  0
CIRCLE
  5
4014
330
4012
100
AcDbEntity
  8
Parcelhusnumre
100
AcDbCircle
 10
0.000202
 20
-0.000369
 30
0.0
 40
2.5
  0
ENDBLK
  5
452F
330
4012
100
AcDbEntity
  8
0
100
AcDbBlockEnd
  0
BLOCK
  5
4530
330
4017
100
AcDbEntity
  8
0
100
AcDbBlockBegin
  2
*U18
 70
     1
 10
0.0
 20
0.0
 30
0.0
  3
*U18
  1

  0
TEXT
  5
4018
330
4017
100
AcDbEntity
  8
Parcelhusnumre
100
AcDbText
 10
-1.857649
 20
-1.250369
 30
0.0
 40
2.5
  1
14
100
AcDbText
  0
CIRCLE
  5
4019
330
4017
100
AcDbEntity
  8
Parcelhusnumre
100
AcDbCircle
 10
0.000202
 20
-0.000369
 30
0.0
 40
2.5
  0
ENDBLK
  5
4531
330
4017
100
AcDbEntity
  8
0
100
AcDbBlockEnd
  0
BLOCK
  5
4532
330
401C
100
AcDbEntity
  8
0
100
AcDbBlockBegin
  2
*U19
 70
     1
 10
0.0
 20
0.0
 30
0.0
  3
*U19
  1

  0
TEXT
  5
401D
330
401C
100
AcDbEntity
  8
Parcelhusnumre
100
AcDbText
 10
-1.857649
 20
-1.250369
 30
0.0
 40
2.5
  1
13
100
AcDbText
  0
CIRCLE
  5
401E
330
401C
100
AcDbEntity
  8
Parcelhusnumre
100
AcDbCircle
 10
0.000202
 20
-0.000369
 30
0.0
 40
2.5
  0
ENDBLK
  5
4533
330
401C
100
AcDbEntity
  8
0
100
AcDbBlockEnd
  0
BLOCK
  5
4534
330
4021
100
AcDbEntity
  8
0
100
AcDbBlockBegin
  2
*U20
 70
     1
 10
0.0
 20
0.0
 30
0.0
  3
*U20
  1

  0
TEXT
  5
4022
330
4021
100
AcDbEntity
  8
Parcelhusnumre
100
AcDbText
 10
-1.857649
 20
-1.250369
 30
0.0
 40
2.5
  1
16
100
AcDbText
  0
CIRCLE
  5
4023
330
4021
100
AcDbEntity
  8
Parcelhusnumre
100
AcDbCircle
 10
0.000202
 20
-0.000369
 30
0.0
 40
2.5
  0
ENDBLK
  5
4535
330
4021
100
AcDbEntity
  8
0
100
AcDbBlockEnd
  0
BLOCK
  5
4536
330
4026
100
AcDbEntity
  8
0
100
AcDbBlockBegin
  2
*U21
 70
     1
 10
0.0
 20
0.0
 30
0.0
  3
*U21
  1

  0
TEXT
  5
4027
330
4026
100
AcDbEntity
  8
Parcelhusnumre
100
AcDbText
 10
-1.857649
 20
-1.250369
 30
0.0
 40
2.5
  1
12
100
AcDbText
  0
CIRCLE
  5
4028
330
4026
100
AcDbEntity
  8
Parcelhusnumre
100
AcDbCircle
 10
0.000202
 20
-0.000369
 30
0.0
 40
2.5
  0
ENDBLK
  5
4537
330
4026
100
AcDbEntity
  8
0
100
AcDbBlockEnd
  0
BLOCK
  5
453C
330
4538
100
AcDbEntity
  8
0
 62
   214
370
     0
100
AcDbBlockBegin
  2
TerminatorOpen_0.5
 70
     0
 10
0.0
 20
0.0
 30
0.0
  3
TerminatorOpen_0.5
  1

  0
LINE
  5
4539
330
4538
100
AcDbEntity
  8
0
  6
ByBlock
 62
     0
370
    -2
100
AcDbLine
 10
0.0
 20
0.0
 30
0.0
 11
-1.0
 21
0.0
 31
0.0
  0
LINE
  5
453A
330
4538
100
AcDbEntity
  8
0
  6
ByBlock
 62
     0
370
    -2
100
AcDbLine
 10
0.0
 20
0.0
 30
0.0
 11
-1.0
 21
0.25
 31
0.0
  0
LINE
  5
453B
330
4538
100
AcDbEntity
  8
0
  6
ByBlock
 62
     0
370
    -2
100
AcDbLine
 10
0.0
 20
0.0
 30
0.0
 11
-1.0
 21
-0.25
 31
0.0
  0
ENDBLK
  5
453D
330
4538
100
AcDbEntity
  8
0
 62
   214
370
     0
100
AcDbBlockEnd
  0
BLOCK
  5
4544
330
4543
100
AcDbEntity
  8
0
 62
   214
370
     0
100
AcDbBlockBegin
  2
Nordpil
 70
     0
 10
0.0
 20
0.0
 30
0.0
  3
Nordpil
  1

  0
LINE
  5
406C
330
4543
100
AcDbEntity
  8
Måleblad fuld 0_15
  6
Continuous
 62
     7
370
     0
100
AcDbLine
 10
0.0
 20
26.729
 30
0.0
 11
0.0
 21
-18.759
 31
0.0
  0
LINE
  5
406D
330
4543
100
AcDbEntity
  8
Måleblad fuld 0_15
  6
Continuous
 62
     7
370
     0
100
AcDbLine
 10
0.0
 20
26.729
 30
0.0
 11
-1.788
 21
-1.788
 31
0.0
  0
LINE
  5
406E
330
4543
100
AcDbEntity
  8
Måleblad fuld 0_15
  6
Continuous
 62
     7
370
     0
100
AcDbLine
 10
-0.001
 20
26.635
 30
0.0
 11
0.933
 21
-0.263
 31
0.0
  0
LINE
  5
406F
330
4543
100
AcDbEntity
  8
Måleblad fuld 0_15
  6
Continuous
 62
     7
370
     0
100
AcDbLine
 10
0.0
 20
26.534
 30
0.0
 11
-0.84
 21
-0.21
 31
0.0
  0
ARC
  5
4070
330
4543
100
AcDbEntity
  8
Måleblad fuld 0_15
  6
Continuous
 62
     7
370
     0
100
AcDbCircle
 10
0.0
 20
-1.788
 30
0.0
 40
1.787738440956621
210
0.0
220
0.0
230
-1.0
100
AcDbArc
 50
6.860825
 51
270.187775
  0
LINE
  5
4071
330
4543
100
AcDbEntity
  8
Måleblad fuld 0_15
  6
Continuous
 62
     7
370
     0
100
AcDbLine
 10
0.0
 20
-0.009
 30
0.0
 11
0.043
 21
-0.008
 31
0.0
  0
LINE
  5
4072
330
4543
100
AcDbEntity
  8
Måleblad fuld 0_15
  6
Continuous
 62
     7
370
     0
100
AcDbLine
 10
0.0
 20
26.52
 30
0.0
 11
1.787
 21
-1.742
 31
0.0
  0
HATCH
  5
4073
330
4543
100
AcDbEntity
  8
Måleblad fuld 0_15
  6
Continuous
 62
     7
370
     0
100
AcDbHatch
 10
0.0
 20
0.0
 30
0.0
210
0.0
220
0.0
230
1.0
  2
SOLID
 70
     1
 71
     0
 91
        1
 92
        3
 72
     0
 73
     1
 93
       10
 10
-1.155999999959021
 20
-16.34700000000885
 10
-1.155999999959021
 20
-13.19000000000233
 10
-0.8399999999674037
 20
-13.19000000000233
 10
0.8470000000088475
 20
-15.8180000000284
 10
0.8470000000088475
 20
-13.19000000000233
 10
1.147000000055413
 20
-13.19000000000233
 10
1.147000000055413
 20
-16.34700000000885
 10
0.8329999999841675
 20
-16.34700000000885
 10
-0.8559999999706633
 20
-13.71800000002258
 10
-0.8559999999706633
 20
-16.34700000000885
 97
        0
 75
     0
 76
     1
 98
        1
 10
0.0
 20
0.0
  0
ARC
  5
4074
330
4543
100
AcDbEntity
  8
Måleblad fuld 0_15
  6
Continuous
 62
     7
370
     0
100
AcDbCircle
 10
0.0
 20
-1.788
 30
0.0
 40
1.787738440956621
100
AcDbArc
 50
85.364878
 51
90.010206
  0
LINE
  5
4075
330
4543
100
AcDbEntity
  8
Måleblad fuld 0_15
  6
Continuous
 62
     7
370
     0
100
AcDbLine
 10
0.0
 20
0.0
 30
0.0
 11
0.0
 21
-3.576
 31
0.0
  0
LINE
  5
4076
330
4543
100
AcDbEntity
  8
Måleblad fuld 0_15
  6
Continuous
 62
     7
370
     0
100
AcDbLine
 10
-0.000104
 20
-0.154783
 30
0.0
 11
0.722543
 21
-0.154783
 31
0.0
  0
LINE
  5
4077
330
4543
100
AcDbEntity
  8
Måleblad fuld 0_15
  6
Continuous
 62
     7
370
     0
100
AcDbLine
 10
-0.000104
 20
-0.354783
 30
0.0
 11
1.065846
 21
-0.354783
 31
0.0
  0
LINE
  5
4078
330
4543
100
AcDbEntity
  8
Måleblad fuld 0_15
  6
Continuous
 62
     7
370
     0
100
AcDbLine
 10
-0.000104
 20
-0.554783
 30
0.0
 11
1.291527
 21
-0.554783
 31
0.0
  0
LINE
  5
4079
330
4543
100
AcDbEntity
  8
Måleblad fuld 0_15
  6
Continuous
 62
     7
370
     0
100
AcDbLine
 10
-0.000104
 20
-0.754783
 30
0.0
 11
1.458546
 21
-0.754783
 31
0.0
  0
LINE
  5
407A
330
4543
100
AcDbEntity
  8
Måleblad fuld 0_15
  6
Continuous
 62
     7
370
     0
100
AcDbLine
 10
-0.000104
 20
-0.954783
 30
0.0
 11
1.579487
 21
-0.954783
 31
0.0
  0
LINE
  5
407B
330
4543
100
AcDbEntity
  8
Måleblad fuld 0_15
  6
Continuous
 62
     7
370
     0
100
AcDbLine
 10
-0.000104
 20
-1.154783
 30
0.0
 11
1.670133
 21
-1.154783
 31
0.0
  0
LINE
  5
407C
330
4543
100
AcDbEntity
  8
Måleblad fuld 0_15
  6
Continuous
 62
     7
370
     0
100
AcDbLine
 10
-0.000104
 20
-1.354783
 30
0.0
 11
1.734197
 21
-1.354783
 31
0.0
  0
LINE
  5
407D
330
4543
100
AcDbEntity
  8
Måleblad fuld 0_15
  6
Continuous
 62
     7
370
     0
100
AcDbLine
 10
-0.000104
 20
-1.554783
 30
0.0
 11
1.771316
 21
-1.554783
 31
0.0
  0
LINE
  5
407E
330
4543
100
AcDbEntity
  8
Måleblad fuld 0_15
  6
Continuous
 62
     7
370
     0
100
AcDbLine
 10
-0.000104
 20
-1.754783
 30
0.0
 11
1.785591
 21
-1.754783
 31
0.0
  0
LINE
  5
407F
330
4543
100
AcDbEntity
  8
Måleblad fuld 0_15
  6
Continuous
 62
     7
370
     0
100
AcDbLine
 10
-0.000104
 20
-1.954783
 30
0.0
 11
1.778039
 21
-1.954783
 31
0.0
  0
LINE
  5
4080
330
4543
100
AcDbEntity
  8
Måleblad fuld 0_15
  6
Continuous
 62
     7
370
     0
100
AcDbLine
 10
-0.000104
 20
-2.154783
 30
0.0
 11
1.747722
 21
-2.154783
 31
0.0
  0
LINE
  5
4081
330
4543
100
AcDbEntity
  8
Måleblad fuld 0_15
  6
Continuous
 62
     7
370
     0
100
AcDbLine
 10
-0.000104
 20
-2.354783
 30
0.0
 11
1.694211
 21
-2.354783
 31
0.0
  0
LINE
  5
4082
330
4543
100
AcDbEntity
  8
Måleblad fuld 0_15
  6
Continuous
 62
     7
370
     0
100
AcDbLine
 10
-0.000104
 20
-2.554783
 30
0.0
 11
1.614265
 21
-2.554783
 31
0.0
  0
LINE
  5
4083
330
4543
100
AcDbEntity
  8
Måleblad fuld 0_15
  6
Continuous
 62
     7
370
     0
100
AcDbLine
 10
-0.000104
 20
-2.754783
 30
0.0
 11
1.501428
 21
-2.754783
 31
0.0
  0
LINE
  5
4084
330
4543
100
AcDbEntity
  8
Måleblad fuld 0_15
  6
Continuous
 62
     7
370
     0
100
AcDbLine
 10
-0.000104
 20
-2.954783
 30
0.0
 11
1.35367
 21
-2.954783
 31
0.0
  0
LINE
  5
4085
330
4543
100
AcDbEntity
  8
Måleblad fuld 0_15
  6
Continuous
 62
     7
370
     0
100
AcDbLine
 10
-0.000104
 20
-3.154783
 30
0.0
 11
1.149394
 21
-3.154783
 31
0.0
  0
LINE
  5
4086
330
4543
100
AcDbEntity
  8
Måleblad fuld 0_15
  6
Continuous
 62
     7
370
     0
100
AcDbLine
 10
-0.000104
 20
-3.354783
 30
0.0
 11
0.85748
 21
-3.354783
 31
0.0
  0
LINE
  5
4087
330
4543
100
AcDbEntity
  8
Måleblad fuld 0_15
  6
Continuous
 62
     7
370
     0
100
AcDbLine
 10
-0.000104
 20
-3.554783
 30
0.0
 11
0.259595
 21
-3.554783
 31
0.0
  0
LINE
  5
4088
330
4543
100
AcDbEntity
  8
Måleblad fuld 0_15
  6
Continuous
 62
     7
370
     0
100
AcDbLine
 10
0.011207
 20
-3.5752
 30
0.0
 11
0.011207
 21
-0.000444
 31
0.0
  0
LINE
  5
4089
330
4543
100
AcDbEntity
  8
Måleblad fuld 0_15
  6
Continuous
 62
     7
370
     0
100
AcDbLine
 10
0.211207
 20
-3.561693
 30
0.0
 11
0.211207
 21
-0.014095
 31
0.0
  0
LINE
  5
408A
330
4543
100
AcDbEntity
  8
Måleblad fuld 0_15
  6
Continuous
 62
     7
370
     0
100
AcDbLine
 10
0.411207
 20
-3.525763
 30
0.0
 11
0.411207
 21
-0.050181
 31
0.0
  0
LINE
  5
408B
330
4543
100
AcDbEntity
  8
Måleblad fuld 0_15
  6
Continuous
 62
     7
370
     0
100
AcDbLine
 10
0.611207
 20
-3.466196
 30
0.0
 11
0.611207
 21
-0.109939
 31
0.0
  0
LINE
  5
408C
330
4543
100
AcDbEntity
  8
Måleblad fuld 0_15
  6
Continuous
 62
     7
370
     0
100
AcDbLine
 10
0.811207
 20
-3.380911
 30
0.0
 11
0.811207
 21
-0.195472
 31
0.0
  0
LINE
  5
408D
330
4543
100
AcDbEntity
  8
Måleblad fuld 0_15
  6
Continuous
 62
     7
370
     0
100
AcDbLine
 10
1.011207
 20
-3.260026
 30
0.0
 11
1.011207
 21
-0.31582
 31
0.0
  0
LINE
  5
408E
330
4543
100
AcDbEntity
  8
Måleblad fuld 0_15
  6
Continuous
 62
     7
370
     0
100
AcDbLine
 10
1.211207
 20
-3.101702
 30
0.0
 11
1.211207
 21
-0.47465
 31
0.0
  0
LINE
  5
408F
330
4543
100
AcDbEntity
  8
Måleblad fuld 0_15
  6
Continuous
 62
     7
370
     0
100
AcDbLine
 10
1.411207
 20
-2.882462
 30
0.0
 11
1.411207
 21
-0.693669
 31
0.0
  0
LINE
  5
4090
330
4543
100
AcDbEntity
  8
Måleblad fuld 0_15
  6
Continuous
 62
     7
370
     0
100
AcDbLine
 10
1.611207
 20
-2.560617
 30
0.0
 11
1.611207
 21
-1.01597
 31
0.0
  0
ENDBLK
  5
4545
330
4543
100
AcDbEntity
  8
0
 62
   214
370
     0
100
AcDbBlockEnd
  0
BLOCK
  5
4549
330
4548
100
AcDbEntity
  8
0
 62
   214
370
     0
100
AcDbBlockBegin
  2
RETLIM
 70
     0
 10
0.0
 20
0.0
 30
0.0
  3
RETLIM
  1

  0
ARC
  5
40B6
330
4548
100
AcDbEntity
  8
Måleblad fuld 0_15
  6
Continuous
 62
     7
370
     0
100
AcDbCircle
 10
0.0
 20
0.0
 30
0.0
 40
3.0
100
AcDbArc
 50
180.0
 51
0.0
  0
LINE
  5
40B7
330
4548
100
AcDbEntity
  8
Måleblad fuld 0_15
  6
Continuous
 62
     7
370
     0
100
AcDbLine
 10
-3.0
 20
0.0
 30
0.0
 11
-3.405718
 21
-0.811437
 31
0.0
  0
LINE
  5
40B8
330
4548
100
AcDbEntity
  8
Måleblad fuld 0_15
  6
Continuous
 62
     7
370
     0
100
AcDbLine
 10
-3.0
 20
0.0
 30
0.0
 11
-2.523332
 21
-0.794447
 31
0.0
  0
LINE
  5
40B9
330
4548
100
AcDbEntity
  8
Måleblad fuld 0_15
  6
Continuous
 62
     7
370
     0
100
AcDbLine
 10
3.0
 20
0.0
 30
0.0
 11
2.523332
 21
-0.794447
 31
0.0
  0
LINE
  5
40BA
330
4548
100
AcDbEntity
  8
Måleblad fuld 0_15
  6
Continuous
 62
     7
370
     0
100
AcDbLine
 10
3.0
 20
0.0
 30
0.0
 11
3.405718
 21
-0.811437
 31
0.0
  0
ENDBLK
  5
454A
330
4548
100
AcDbEntity
  8
0
 62
   214
370
     0
100
AcDbBlockEnd
  0
BLOCK
  5
454C
330
454B
100
AcDbEntity
  8
0
 62
   214
370
     0
100
AcDbBlockBegin
  2
SKELP
 70
     0
 10
0.0
 20
0.0
 30
0.0
  3
SKELP
  1

  0
CIRCLE
  5
4183
330
454B
100
AcDbEntity
  8
Skelpunkt øvrige mål (Kl 2)
  6
Continuous
 62
   173
370
    13
100
AcDbCircle
 10
0.0
 20
0.0
 30
0.0
 40
0.6000000000000001
  0
ENDBLK
  5
454D
330
454B
100
AcDbEntity
  8
0
 62
   214
370
     0
100
AcDbBlockEnd
  0
BLOCK
  5
4550
330
454F
100
AcDbEntity
  8
0
 62
   214
370
     0
100
AcDbBlockBegin
  2
CIRKEL
 70
     0
 10
0.0
 20
0.0
 30
0.0
  3
CIRKEL
  1

  0
POINT
  5
43AD
330
454F
100
AcDbEntity
  8
Måleblad fuld 0_15
  6
Continuous
 62
     7
370
     0
100
AcDbPoint
 10
-0.000001
 20
-0.000007
 30
0.0
  0
ARC
  5
43AE
330
454F
100
AcDbEntity
  8
Måleblad fuld 0_15
  6
Continuous
 62
     7
370
     0
100
AcDbCircle
 10
-0.000455
 20
0.00014
 30
0.0
 40
0.6000000000000001
100
AcDbArc
 50
89.956673
 51
270.043327
  0
ARC
  5
43AF
330
454F
100
AcDbEntity
  8
Måleblad fuld 0_15
  6
Continuous
 62
     7
370
     0
100
AcDbCircle
 10
-0.000455
 20
0.00014
 30
0.0
 40
0.6
100
AcDbArc
 50
270.043327
 51
89.956673
  0
ENDBLK
  5
4551
330
454F
100
AcDbEntity
  8
0
 62
   214
370
     0
100
AcDbBlockEnd
  0
ENDSEC
  0
SECTION
  2
ENTITIES
  0
LWPOLYLINE
  5
39CD
330
44B0
100
AcDbEntity
  8
Måleblad stip 0_15
  6
DGN Style 3
 62
     7
370
     0
100
AcDbPolyline
 90
        2
 70
   128
 43
0.0
 10
-251503.315
 20
150344.8
 10
-251557.717
 20
150313.402
  0
LWPOLYLINE
  5
39D0
330
44B0
100
AcDbEntity
  8
Måleblad stip 0_15
  6
DGN Style 3
 62
     7
370
     0
100
AcDbPolyline
 90
        2
 70
   128
 43
0.0
 10
-250573.547
 20
150567.561
 10
-250793.462
 20
150558.571
  0
LWPOLYLINE
  5
39D1
330
44B0
100
AcDbEntity
  8
Måleblad stip 0_15
  6
DGN Style 3
 62
     7
370
     0
100
AcDbPolyline
 90
        2
 70
   128
 43
0.0
 10
-250793.462
 20
150558.571
 10
-250799.957
 20
150561.242
  0
LWPOLYLINE
  5
39D2
330
44B0
100
AcDbEntity
  8
Måleblad stip 0_15
  6
DGN Style 3
 62
     7
370
     0
100
AcDbPolyline
 90
        2
 70
   128
 43
0.0
 10
-250569.624
 20
150563.935
 10
-250794.198
 20
150554.762
  0
LWPOLYLINE
  5
39D3
330
44B0
100
AcDbEntity
  8
Måleblad stip 0_15
  6
DGN Style 3
 62
     7
370
     0
100
AcDbPolyline
 90
        2
 70
   128
 43
0.0
 10
-250794.198
 20
150554.762
 10
-250802.397
 20
150558.176
  0
LWPOLYLINE
  5
39D4
330
44B0
100
AcDbEntity
  8
Måleblad stip 0_15
  6
DGN Style 3
 62
     7
370
     0
100
AcDbPolyline
 90
        2
 70
   128
 43
0.0
 10
-250812.011
 20
150558.074
 10
-250802.397
 20
150558.176
  0
LWPOLYLINE
  5
39D5
330
44B0
100
AcDbEntity
  8
Måleblad stip 0_15
  6
DGN Style 3
 62
     7
370
     0
100
AcDbPolyline
 90
        2
 70
   128
 43
0.0
 10
-250799.957
 20
150561.242
 10
-250802.529
 20
150567.718
  0
LWPOLYLINE
  5
39D6
330
44B0
100
AcDbEntity
  8
Måleblad stip 0_15
  6
DGN Style 3
 62
     7
370
     0
100
AcDbPolyline
 90
        2
 70
   128
 43
0.0
 10
-250812.08
 20
150558.072
 10
-250812.011
 20
150558.074
  0
LWPOLYLINE
  5
39DD
330
44B0
100
AcDbEntity
  8
Måleblad stip 0_15
  6
DGN Style 3
 62
     7
370
     0
100
AcDbPolyline
 90
        2
 70
   128
 43
0.0
 10
-251503.315
 20
150344.8
 10
-251435.408
 20
150377.559
  0
LWPOLYLINE
  5
39DE
330
44B0
100
AcDbEntity
  8
Måleblad stip 0_15
  6
DGN Style 3
 62
     7
370
     0
100
AcDbPolyline
 90
        2
 70
   128
 43
0.0
 10
-251435.408
 20
150377.559
 10
-251367.93
 20
150410.32
  0
LWPOLYLINE
  5
39DF
330
44B0
100
AcDbEntity
  8
Måleblad stip 0_15
  6
DGN Style 3
 62
     7
370
     0
100
AcDbPolyline
 90
        2
 70
   128
 43
0.0
 10
-251367.93
 20
150410.32
 10
-251308.136
 20
150440.293
  0
LWPOLYLINE
  5
39E0
330
44B0
100
AcDbEntity
  8
Måleblad stip 0_15
  6
DGN Style 3
 62
     7
370
     0
100
AcDbPolyline
 90
        2
 70
   128
 43
0.0
 10
-251308.136
 20
150440.293
 10
-251303.08
 20
150443.627
  0
LWPOLYLINE
  5
39E1
330
44B0
100
AcDbEntity
  8
Måleblad stip 0_15
  6
DGN Style 3
 62
     7
370
     0
100
AcDbPolyline
 90
        2
 70
   128
 43
0.0
 10
-251301.782
 20
150444.171
 10
-251290.893
 20
150448.724
  0
LWPOLYLINE
  5
39E2
330
44B0
100
AcDbEntity
  8
Måleblad stip 0_15
  6
DGN Style 3
 62
     7
370
     0
100
AcDbPolyline
 90
        2
 70
   128
 43
0.0
 10
-251303.08
 20
150443.627
 10
-251301.782
 20
150444.171
  0
LWPOLYLINE
  5
39E3
330
44B0
100
AcDbEntity
  8
Måleblad stip 0_15
  6
DGN Style 3
 62
     7
370
     0
100
AcDbPolyline
 90
        2
 70
   128
 43
0.0
 10
-251500.238
 20
150350.458
 10
-251409.087
 20
150394.518
  0
LWPOLYLINE
  5
39E4
330
44B0
100
AcDbEntity
  8
Måleblad stip 0_15
  6
DGN Style 3
 62
     7
370
     0
100
AcDbPolyline
 90
        2
 70
   128
 43
0.0
 10
-251310.02
 20
150443.555
 10
-251303.985
 20
150447.463
  0
LWPOLYLINE
  5
39E5
330
44B0
100
AcDbEntity
  8
Måleblad stip 0_15
  6
DGN Style 3
 62
     7
370
     0
100
AcDbPolyline
 90
        2
 70
   128
 43
0.0
 10
-251504.239
 20
150348.528
 10
-251564.097
 20
150315.803
  0
LWPOLYLINE
  5
39E6
330
44B0
100
AcDbEntity
  8
Måleblad stip 0_15
  6
DGN Style 3
 62
     7
370
     0
100
AcDbPolyline
 90
        2
 70
   128
 43
0.0
 10
-251500.238
 20
150350.458
 10
-251504.239
 20
150348.528
  0
LWPOLYLINE
  5
39E7
330
44B0
100
AcDbEntity
  8
Måleblad stip 0_15
  6
DGN Style 3
 62
     7
370
     0
100
AcDbPolyline
 90
        2
 70
   128
 43
0.0
 10
-251409.087
 20
150394.518
 10
-251310.02
 20
150443.555
  0
LWPOLYLINE
  5
39E8
330
44B0
100
AcDbEntity
  8
Måleblad stip 0_15
  6
DGN Style 3
 62
     7
370
     0
100
AcDbPolyline
 90
      330
 70
   128
 43
0.0
 10
-251315.571
 20
150364.487
 10
-251316.284
 20
150363.575
 10
-251316.306
 20
150363.544
 10
-251317.512
 20
150361.957
 10
-251317.668
 20
150361.747
 10
-251317.934
 20
150361.387
 10
-251317.997
 20
150361.302
 10
-251318.018
 20
150361.273
 10
-251319.644
 20
150359.041
 10
-251319.666
 20
150359.012
 10
-251320.182
 20
150358.277
 10
-251320.664
 20
150357.582
 10
-251321.217
 20
150356.769
 10
-251321.238
 20
150356.738
 10
-251322.328
 20
150355.091
 10
-251322.789
 20
150354.379
 10
-251322.811
 20
150354.341
 10
-251323.498
 20
150353.233
 10
-251323.72
 20
150352.859
 10
-251324.411
 20
150351.661
 10
-251324.428
 20
150351.626
 10
-251325.015
 20
150350.588
 10
-251325.855
 20
150349.028
 10
-251325.874
 20
150348.992
 10
-251326.06
 20
150348.627
 10
-251326.244
 20
150348.262
 10
-251327.101
 20
150346.444
 10
-251327.118
 20
150346.408
 10
-251327.351
 20
150345.875
 10
-251327.958
 20
150344.402
 10
-251328.131
 20
150343.961
 10
-251328.141
 20
150343.939
 10
-251328.198
 20
150343.788
 10
-251328.33
 20
150343.439
 10
-251328.401
 20
150343.252
 10
-251328.52
 20
150342.921
 10
-251328.568
 20
150342.792
 10
-251328.774
 20
150342.21
 10
-251328.853
 20
150341.977
 10
-251328.927
 20
150341.764
 10
-251329.086
 20
150341.282
 10
-251329.134
 20
150341.136
 10
-251329.193
 20
150340.956
 10
-251329.222
 20
150340.866
 10
-251329.343
 20
150340.478
 10
-251329.367
 20
150340.403
 10
-251329.459
 20
150340.102
 10
-251329.549
 20
150339.804
 10
-251329.554
 20
150339.783
 10
-251329.595
 20
150339.645
 10
-251329.702
 20
150339.274
 10
-251329.708
 20
150339.257
 10
-251329.771
 20
150339.034
 10
-251329.774
 20
150339.022
 10
-251329.776
 20
150339.014
 10
-251329.802
 20
150338.921
 10
-251329.811
 20
150338.886
 10
-251329.816
 20
150338.871
 10
-251329.832
 20
150338.815
 10
-251329.833
 20
150338.81
 10
-251329.844
 20
150338.768
 10
-251329.936
 20
150338.432
 10
-251330.375
 20
150336.683
 10
-251330.451
 20
150336.347
 10
-251330.555
 20
150335.88
 10
-251330.974
 20
150333.754
 10
-251330.997
 20
150333.62
 10
-251331.05
 20
150333.306
 10
-251331.461
 20
150330.729
 10
-251331.895
 20
150325.892
 10
-251331.922
 20
150325.523
 10
-251332.044
 20
150323.253
 10
-251332.046
 20
150323.173
 10
-251332.056
 20
150322.901
 10
-251332.031
 20
150320.586
 10
-251332.016
 20
150320.265
 10
-251331.861
 20
150317.939
 10
-251331.856
 20
150317.887
 10
-251331.834
 20
150317.649
 10
-251331.572
 20
150315.305
 10
-251331.535
 20
150315.044
 10
-251331.159
 20
150312.687
 10
-251331.153
 20
150312.66
 10
-251331.115
 20
150312.456
 10
-251330.637
 20
150310.1
 10
-251330.596
 20
150309.905
 10
-251330.214
 20
150308.205
 10
-251330.045
 20
150307.529
 10
-251330.043
 20
150307.517
 10
-251329.999
 20
150307.349
 10
-251329.322
 20
150304.959
 10
-251329.268
 20
150304.804
 10
-251328.403
 20
150302.501
 10
-251328.386
 20
150302.459
 10
-251328.343
 20
150302.351
 10
-251327.353
 20
150300.033
 10
-251327.318
 20
150299.951
 10
-251326.241
 20
150297.578
 10
-251325.112
 20
150295.23
 10
-251323.922
 20
150293.006
 10
-251323.872
 20
150292.919
 10
-251322.431
 20
150290.384
 10
-251321.425
 20
150288.651
 10
-251318.918
 20
150284.329
 10
-251318.106
 20
150282.908
 10
-251317.429
 20
150281.724
 10
-251316.424
 20
150279.987
 10
-251313.855
 20
150275.697
 10
-251311.347
 20
150271.376
 10
-251308.827
 20
150267.051
 10
-251306.245
 20
150262.763
 10
-251304.206
 20
150259.4
 10
-251303.668
 20
150258.487
 10
-251301.121
 20
150254.178
 10
-251298.531
 20
150249.904
 10
-251296.027
 20
150245.583
 10
-251293.515
 20
150241.254
 10
-251292.95
 20
150240.314
 10
-251292.058
 20
150238.746
 10
-251291.282
 20
150237.198
 10
-251291.257
 20
150237.145
 10
-251290.827
 20
150236.188
 10
-251290.537
 20
150235.498
 10
-251289.899
 20
150233.806
 10
-251289.629
 20
150233.001
 10
-251289.352
 20
150232.098
 10
-251288.895
 20
150230.355
 10
-251288.573
 20
150228.601
 10
-251288.573
 20
150228.595
 10
-251288.347
 20
150226.792
 10
-251288.203
 20
150224.981
 10
-251288.169
 20
150224.081
 10
-251288.159
 20
150223.179
 10
-251288.212
 20
150221.365
 10
-251288.383
 20
150219.556
 10
-251288.383
 20
150219.553
 10
-251288.677
 20
150217.774
 10
-251289.062
 20
150215.988
 10
-251289.297
 20
150215.061
 10
-251289.533
 20
150214.237
 10
-251290.103
 20
150212.502
 10
-251290.785
 20
150210.811
 10
-251291.601
 20
150209.204
 10
-251292.523
 20
150207.631
 10
-251293.072
 20
150206.794
 10
-251293.538
 20
150206.134
 10
-251294.42
 20
150204.98
 10
-251294.646
 20
150204.705
 10
-251295.855
 20
150203.331
 10
-251295.926
 20
150203.255
 10
-251297.129
 20
150202.049
 10
-251299.381
 20
150199.911
 10
-251299.404
 20
150199.89
 10
-251303.052
 20
150196.47
 10
-251304.866
 20
150194.805
 10
-251306.738
 20
150193.083
 10
-251308.265
 20
150191.67
 10
-251309.608
 20
150190.479
 10
-251310.253
 20
150189.935
 10
-251310.975
 20
150189.36
 10
-251312.403
 20
150188.312
 10
-251313.883
 20
150187.341
 10
-251315.397
 20
150186.457
 10
-251316.958
 20
150185.643
 10
-251317.808
 20
150185.24
 10
-251318.542
 20
150184.917
 10
-251320.179
 20
150184.267
 10
-251322.154
 20
150183.525
 10
-251325.902
 20
150182.11
 10
-251326.839
 20
150181.751
 10
-251331.507
 20
150179.945
 10
-251335.225
 20
150178.505
 10
-251335.278
 20
150178.483
 10
-251336.565
 20
150177.867
 10
-251336.748
 20
150177.767
 10
-251338.154
 20
150176.902
 10
-251338.414
 20
150176.702
 10
-251341.08
 20
150174.338
 10
-251343.066
 20
150167.451
 10
-251343.496
 20
150168.102
 10
-251343.925
 20
150168.754
 10
-251344.35
 20
150169.407
 10
-251344.773
 20
150170.063
 10
-251345.193
 20
150170.721
 10
-251345.61
 20
150171.38
 10
-251346.025
 20
150172.04
 10
-251346.437
 20
150172.703
 10
-251346.846
 20
150173.367
 10
-251347.252
 20
150174.033
 10
-251347.656
 20
150174.7
 10
-251348.058
 20
150175.37
 10
-251348.456
 20
150176.04
 10
-251348.851
 20
150176.712
 10
-251349.244
 20
150177.386
 10
-251349.635
 20
150178.062
 10
-251350.022
 20
150178.739
 10
-251350.406
 20
150179.418
 10
-251350.788
 20
150180.098
 10
-251351.168
 20
150180.78
 10
-251351.544
 20
150181.463
 10
-251351.918
 20
150182.148
 10
-251352.288
 20
150182.834
 10
-251352.656
 20
150183.523
 10
-251353.021
 20
150184.211
 10
-251353.383
 20
150184.903
 10
-251353.743
 20
150185.595
 10
-251354.1
 20
150186.289
 10
-251354.453
 20
150186.984
 10
-251354.805
 20
150187.681
 10
-251355.153
 20
150188.379
 10
-251355.498
 20
150189.078
 10
-251355.84
 20
150189.78
 10
-251356.181
 20
150190.482
 10
-251356.517
 20
150191.185
 10
-251356.851
 20
150191.89
 10
-251357.182
 20
150192.597
 10
-251357.51
 20
150193.304
 10
-251357.835
 20
150194.014
 10
-251358.158
 20
150194.724
 10
-251358.477
 20
150195.435
 10
-251358.794
 20
150196.148
 10
-251359.108
 20
150196.863
 10
-251359.419
 20
150197.578
 10
-251359.727
 20
150198.295
 10
-251360.031
 20
150199.013
 10
-251360.333
 20
150199.733
 10
-251360.632
 20
150200.453
 10
-251360.929
 20
150201.174
 10
-251361.222
 20
150201.898
 10
-251361.512
 20
150202.622
 10
-251361.799
 20
150203.347
 10
-251362.084
 20
150204.073
 10
-251362.365
 20
150204.801
 10
-251362.643
 20
150205.53
 10
-251362.918
 20
150206.26
 10
-251363.191
 20
150206.991
 10
-251363.46
 20
150207.722
 10
-251363.727
 20
150208.456
 10
-251363.991
 20
150209.19
 10
-251364.251
 20
150209.925
 10
-251364.508
 20
150210.662
 10
-251364.764
 20
150211.399
 10
-251365.015
 20
150212.138
 10
-251365.264
 20
150212.877
 10
-251365.509
 20
150213.617
 10
-251365.751
 20
150214.359
 10
-251365.991
 20
150215.102
 10
-251366.227
 20
150215.845
 10
-251366.461
 20
150216.589
 10
-251366.691
 20
150217.335
 10
-251366.919
 20
150218.081
 10
-251367.143
 20
150218.828
 10
-251367.364
 20
150219.576
 10
-251367.582
 20
150220.325
 10
-251367.797
 20
150221.075
 10
-251368.01
 20
150221.826
 10
-251368.219
 20
150222.577
 10
-251368.425
 20
150223.33
 10
-251368.628
 20
150224.083
 10
-251368.828
 20
150224.837
 10
-251369.024
 20
150225.592
 10
-251369.218
 20
150226.347
 10
-251369.409
 20
150227.103
 10
-251369.596
 20
150227.862
 10
-251369.781
 20
150228.619
 10
-251369.962
 20
150229.378
 10
-251370.141
 20
150230.138
 10
-251370.316
 20
150230.898
 10
-251370.488
 20
150231.658
 10
-251370.657
 20
150232.42
 10
-251370.822
 20
150233.182
 10
-251370.985
 20
150233.946
 10
-251371.145
 20
150234.709
 10
-251371.302
 20
150235.473
 10
-251371.455
 20
150236.238
 10
-251371.606
 20
150237.004
 10
-251371.752
 20
150237.77
 10
-251371.897
 20
150238.536
 10
-251372.038
 20
150239.303
 10
-251378.376
 20
150274.197
 10
-251378.53
 20
150275.049
 10
-251378.682
 20
150275.903
 10
-251378.833
 20
150276.756
 10
-251378.982
 20
150277.61
 10
-251379.13
 20
150278.463
 10
-251379.275
 20
150279.317
 10
-251379.419
 20
150280.172
 10
-251379.562
 20
150281.027
 10
-251379.702
 20
150281.882
 10
-251379.841
 20
150282.738
 10
-251379.98
 20
150283.593
 10
-251380.114
 20
150284.449
 10
-251380.248
 20
150285.305
 10
-251380.381
 20
150286.161
 10
-251380.511
 20
150287.018
 10
-251380.64
 20
150287.875
 10
-251380.768
 20
150288.732
 10
-251380.893
 20
150289.589
 10
-251381.017
 20
150290.447
 10
-251381.139
 20
150291.305
 10
-251381.26
 20
150292.163
 10
-251381.379
 20
150293.022
 10
-251381.496
 20
150293.881
 10
-251381.611
 20
150294.739
 10
-251381.725
 20
150295.598
 10
-251381.837
 20
150296.458
 10
-251381.948
 20
150297.317
 10
-251382.057
 20
150298.177
 10
-251382.164
 20
150299.037
 10
-251382.268
 20
150299.897
 10
-251382.372
 20
150300.757
 10
-251382.474
 20
150301.617
 10
-251382.574
 20
150302.479
 10
-251382.673
 20
150303.339
 10
-251382.77
 20
150304.2
 10
-251382.865
 20
150305.062
 10
-251382.958
 20
150305.923
 10
-251383.049
 20
150306.785
 10
-251383.14
 20
150307.647
 10
-251383.228
 20
150308.509
 10
-251383.315
 20
150309.371
 10
-251383.4
 20
150310.233
 10
-251383.483
 20
150311.096
 10
-251383.564
 20
150311.959
 10
-251383.644
 20
150312.822
 10
-251383.723
 20
150313.685
 10
-251383.799
 20
150314.548
 10
-251383.874
 20
150315.412
 10
-251383.947
 20
150316.274
 10
-251384.018
 20
150317.138
  0
LWPOLYLINE
  5
39E9
330
44B0
100
AcDbEntity
  8
Måleblad stip 0_15
  6
DGN Style 3
 62
     7
370
     0
100
AcDbPolyline
 90
      413
 70
   128
 43
0.0
 10
-251231.649
 20
150236.634
 10
-251235.272
 20
150233.238
 10
-251239.035
 20
150229.944
 10
-251242.781
 20
150226.618
 10
-251246.524
 20
150223.289
 10
-251250.269
 20
150219.957
 10
-251253.963
 20
150216.577
 10
-251257.667
 20
150213.212
 10
-251261.377
 20
150209.848
 10
-251265.044
 20
150206.459
 10
-251265.056
 20
150206.447
 10
-251268.629
 20
150203.065
 10
-251269.847
 20
150201.927
 10
-251272.228
 20
150199.723
 10
-251274.688
 20
150197.45
 10
-251275.842
 20
150196.399
 10
-251278.59
 20
150193.941
 10
-251279.506
 20
150193.135
 10
-251279.59
 20
150193.061
 10
-251283.232
 20
150189.949
 10
-251284.611
 20
150188.8
 10
-251286.069
 20
150187.596
 10
-251287.008
 20
150186.817
 10
-251289.704
 20
150184.628
 10
-251290.821
 20
150183.742
 10
-251293.736
 20
150181.495
 10
-251294.712
 20
150180.759
 10
-251294.91
 20
150180.609
 10
-251298.618
 20
150177.787
 10
-251300.16
 20
150176.641
 10
-251301.571
 20
150175.608
 10
-251302.565
 20
150174.892
 10
-251305.5
 20
150172.799
 10
-251306.557
 20
150172.034
 10
-251310.515
 20
150169.138
 10
-251310.818
 20
150168.92
 10
-251314.499
 20
150166.294
 10
-251316.184
 20
150165.112
 10
-251318.621
 20
150163.311
 10
-251319.91
 20
150162.334
 10
-251322.736
 20
150160.107
 10
-251323.546
 20
150159.446
 10
-251326.739
 20
150156.783
 10
-251327.099
 20
150156.481
 10
-251327.548
 20
150156.102
 10
-251329.957
 20
150153.843
 10
-251330.844
 20
150154.861
 10
-251331.172
 20
150155.244
 10
-251332.665
 20
150157.05
 10
-251333.766
 20
150158.419
 10
-251334.065
 20
150158.787
 10
-251334.175
 20
150158.94
 10
-251334.539
 20
150159.513
 10
-251334.541
 20
150159.518
 10
-251334.822
 20
150160.088
 10
-251335.055
 20
150160.706
 10
-251335.23
 20
150161.364
 10
-251335.235
 20
150161.38
 10
-251335.24
 20
150161.404
 10
-251335.341
 20
150162.009
 10
-251335.388
 20
150162.678
 10
-251335.372
 20
150163.351
 10
-251335.288
 20
150164.032
 10
-251335.239
 20
150164.284
 10
-251335.143
 20
150164.679
 10
-251334.932
 20
150165.334
 10
-251334.658
 20
150165.963
 10
-251334.326
 20
150166.569
 10
-251334.035
 20
150167.007
 10
-251333.946
 20
150167.131
 10
-251333.496
 20
150167.674
 10
-251333.003
 20
150168.17
 10
-251332.463
 20
150168.621
 10
-251331.872
 20
150169.029
 10
-251331.826
 20
150169.057
 10
-251331.272
 20
150169.367
 10
-251327.662
 20
150171.002
 10
-251323.113
 20
150173.089
 10
-251322.204
 20
150173.512
 10
-251318.576
 20
150175.2
 10
-251316.655
 20
150176.094
 10
-251314.705
 20
150177.05
 10
-251313.816
 20
150177.536
 10
-251312.799
 20
150178.124
 10
-251310.959
 20
150179.276
 10
-251309.195
 20
150180.505
 10
-251309.168
 20
150180.524
 10
-251307.461
 20
150181.847
 10
-251305.817
 20
150183.252
 10
-251304.976
 20
150184.026
 10
-251304.241
 20
150184.761
 10
-251302.779
 20
150186.338
 10
-251299.724
 20
150189.827
 10
-251298.11
 20
150191.69
 10
-251294.803
 20
150195.441
 10
-251294.782
 20
150195.463
 10
-251289.341
 20
150201.595
 10
-251288.016
 20
150203.503
 10
-251287.362
 20
150204.512
 10
-251286.276
 20
150206.386
 10
-251285.351
 20
150208.243
 10
-251285.337
 20
150208.275
 10
-251285.309
 20
150208.337
 10
-251284.461
 20
150210.312
 10
-251283.681
 20
150212.325
 10
-251283.347
 20
150213.304
 10
-251283.008
 20
150214.403
 10
-251282.465
 20
150216.506
 10
-251282.051
 20
150218.609
 10
-251282.043
 20
150218.655
 10
-251281.746
 20
150220.805
 10
-251281.563
 20
150222.976
 10
-251281.518
 20
150224.073
 10
-251281.504
 20
150225.173
 10
-251281.573
 20
150227.36
 10
-251281.772
 20
150229.536
 10
-251281.777
 20
150229.58
 10
-251282.079
 20
150231.714
 10
-251282.498
 20
150233.869
 10
-251282.77
 20
150235.002
 10
-251283.048
 20
150236.017
 10
-251283.721
 20
150238.114
 10
-251284.048
 20
150238.991
 10
-251284.538
 20
150240.176
 10
-251284.579
 20
150240.27
 10
-251285.49
 20
150242.184
 10
-251286.557
 20
150244.115
 10
-251287.124
 20
150245.072
 10
-251289.717
 20
150249.346
 10
-251292.253
 20
150253.648
 10
-251294.76
 20
150257.978
 10
-251297.334
 20
150262.269
 10
-251297.88
 20
150263.183
 10
-251299.904
 20
150266.559
 10
-251302.479
 20
150270.847
 10
-251305.075
 20
150275.124
 10
-251307.698
 20
150279.388
 10
-251310.384
 20
150283.613
 10
-251311.455
 20
150285.299
 10
-251312.17
 20
150286.452
 10
-251313.025
 20
150287.843
 10
-251315.589
 20
150292.136
 10
-251316.633
 20
150293.849
 10
-251318.185
 20
150296.322
 10
-251318.227
 20
150296.388
 10
-251319.397
 20
150298.31
 10
-251320.517
 20
150300.358
 10
-251320.562
 20
150300.443
 10
-251321.545
 20
150302.447
 10
-251322.485
 20
150304.593
 10
-251322.529
 20
150304.703
 10
-251323.31
 20
150306.771
 10
-251324.039
 20
150309.003
 10
-251324.08
 20
150309.138
 10
-251324.232
 20
150309.727
 10
-251324.583
 20
150311.256
 10
-251325.082
 20
150313.562
 10
-251325.115
 20
150313.73
 10
-251325.473
 20
150315.867
 10
-251325.758
 20
150318.199
 10
-251325.774
 20
150318.393
 10
-251325.923
 20
150320.529
 10
-251325.973
 20
150322.881
 10
-251325.971
 20
150323.102
 10
-251325.914
 20
150325.218
 10
-251325.74
 20
150327.559
 10
-251325.713
 20
150327.8
 10
-251325.424
 20
150329.874
 10
-251325.02
 20
150332.196
 10
-251324.969
 20
150332.465
 10
-251324.69
 20
150333.758
 10
-251324.584
 20
150333.758
 10
-251324.478
 20
150333.76
 10
-251324.372
 20
150333.762
 10
-251324.266
 20
150333.765
 10
-251324.16
 20
150333.768
 10
-251324.053
 20
150333.773
 10
-251323.947
 20
150333.778
 10
-251323.841
 20
150333.783
 10
-251323.735
 20
150333.788
 10
-251323.629
 20
150333.795
 10
-251323.524
 20
150333.803
 10
-251323.417
 20
150333.811
 10
-251323.311
 20
150333.82
 10
-251323.206
 20
150333.829
 10
-251323.1
 20
150333.84
 10
-251322.994
 20
150333.85
 10
-251322.889
 20
150333.862
 10
-251322.784
 20
150333.874
 10
-251322.677
 20
150333.886
 10
-251322.572
 20
150333.899
 10
-251322.468
 20
150333.913
 10
-251322.362
 20
150333.928
 10
-251322.257
 20
150333.943
 10
-251322.152
 20
150333.959
 10
-251322.047
 20
150333.976
 10
-251321.943
 20
150333.993
 10
-251321.838
 20
150334.011
 10
-251321.733
 20
150334.03
 10
-251321.629
 20
150334.049
 10
-251321.524
 20
150334.069
 10
-251321.421
 20
150334.088
 10
-251321.316
 20
150334.11
 10
-251321.213
 20
150334.131
 10
-251321.108
 20
150334.154
 10
-251321.005
 20
150334.177
 10
-251320.901
 20
150334.201
 10
-251320.798
 20
150334.225
 10
-251320.695
 20
150334.25
 10
-251320.592
 20
150334.276
 10
-251320.489
 20
150334.302
 10
-251320.386
 20
150334.329
 10
-251320.284
 20
150334.356
 10
-251320.181
 20
150334.385
 10
-251320.079
 20
150334.413
 10
-251319.977
 20
150334.443
 10
-251319.875
 20
150334.473
 10
-251319.774
 20
150334.504
 10
-251319.672
 20
150334.535
 10
-251319.571
 20
150334.567
 10
-251319.47
 20
150334.599
 10
-251319.369
 20
150334.632
 10
-251319.268
 20
150334.666
 10
-251319.167
 20
150334.701
 10
-251319.068
 20
150334.736
 10
-251318.968
 20
150334.771
 10
-251318.868
 20
150334.808
 10
-251318.768
 20
150334.844
 10
-251318.668
 20
150334.882
 10
-251318.57
 20
150334.92
 10
-251318.471
 20
150334.959
 10
-251318.372
 20
150334.998
 10
-251318.274
 20
150335.038
 10
-251318.175
 20
150335.079
 10
-251318.077
 20
150335.12
 10
-251317.98
 20
150335.161
 10
-251317.883
 20
150335.204
 10
-251317.786
 20
150335.248
 10
-251317.689
 20
150335.291
 10
-251317.593
 20
150335.335
 10
-251317.496
 20
150335.38
 10
-251317.4
 20
150335.425
 10
-251317.305
 20
150335.471
 10
-251317.209
 20
150335.517
 10
-251317.114
 20
150335.565
 10
-251317.019
 20
150335.612
 10
-251316.925
 20
150335.661
 10
-251316.83
 20
150335.71
 10
-251316.737
 20
150335.759
 10
-251316.643
 20
150335.809
 10
-251316.55
 20
150335.86
 10
-251316.457
 20
150335.911
 10
-251316.364
 20
150335.964
 10
-251316.272
 20
150336.016
 10
-251316.179
 20
150336.069
 10
-251316.087
 20
150336.122
 10
-251315.996
 20
150336.176
 10
-251315.905
 20
150336.231
 10
-251315.815
 20
150336.286
 10
-251315.725
 20
150336.342
 10
-251315.635
 20
150336.398
 10
-251315.544
 20
150336.455
 10
-251315.455
 20
150336.513
 10
-251315.366
 20
150336.571
 10
-251315.278
 20
150336.629
 10
-251315.19
 20
150336.689
 10
-251315.102
 20
150336.748
 10
-251315.014
 20
150336.808
 10
-251314.927
 20
150336.869
 10
-251314.841
 20
150336.93
 10
-251314.754
 20
150336.992
 10
-251287.274
 20
150356.806
 10
-251280.273
 20
150350.159
 10
-251279.866
 20
150349.774
 10
-251279.452
 20
150349.393
 10
-251279.033
 20
150349.02
 10
-251278.608
 20
150348.652
 10
-251278.179
 20
150348.29
 10
-251277.744
 20
150347.934
 10
-251277.305
 20
150347.585
 10
-251276.86
 20
150347.242
 10
-251276.41
 20
150346.906
 10
-251275.956
 20
150346.577
 10
-251275.496
 20
150346.254
 10
-251275.034
 20
150345.937
 10
-251274.565
 20
150345.627
 10
-251274.092
 20
150345.324
 10
-251273.615
 20
150345.027
 10
-251273.134
 20
150344.739
 10
-251272.649
 20
150344.456
 10
-251272.159
 20
150344.181
 10
-251271.666
 20
150343.913
 10
-251271.169
 20
150343.652
 10
-251270.668
 20
150343.398
 10
-251270.164
 20
150343.152
 10
-251269.656
 20
150342.911
 10
-251269.144
 20
150342.68
 10
-251268.63
 20
150342.456
 10
-251268.113
 20
150342.238
 10
-251267.592
 20
150342.029
 10
-251267.067
 20
150341.826
 10
-251266.541
 20
150341.632
 10
-251266.011
 20
150341.445
 10
-251265.48
 20
150341.265
 10
-251264.945
 20
150341.093
 10
-251264.408
 20
150340.93
 10
-251263.869
 20
150340.774
 10
-251263.327
 20
150340.626
 10
-251262.784
 20
150340.485
 10
-251262.238
 20
150340.352
 10
-251261.69
 20
150340.228
 10
-251261.141
 20
150340.111
 10
-251260.59
 20
150340.002
 10
-251260.038
 20
150339.901
 10
-251259.485
 20
150339.808
 10
-251258.929
 20
150339.723
 10
-251258.373
 20
150339.645
 10
-251257.816
 20
150339.576
 10
-251257.258
 20
150339.515
 10
-251256.699
 20
150339.463
 10
-251256.14
 20
150339.418
 10
-251255.579
 20
150339.381
 10
-251255.018
 20
150339.352
 10
-251254.457
 20
150339.332
 10
-251253.895
 20
150339.319
 10
-251253.334
 20
150339.315
 10
-251252.773
 20
150339.319
 10
-251252.211
 20
150339.33
 10
-251251.651
 20
150339.35
 10
-251251.09
 20
150339.378
 10
-251250.53
 20
150339.414
 10
-251249.969
 20
150339.459
 10
-251249.41
 20
150339.511
 10
-251248.853
 20
150339.57
 10
-251248.295
 20
150339.638
 10
-251247.739
 20
150339.715
 10
-251247.184
 20
150339.799
 10
-251246.63
 20
150339.891
 10
-251246.078
 20
150339.992
 10
-251245.526
 20
150340.1
 10
-251244.977
 20
150340.216
 10
-251244.43
 20
150340.341
 10
-251243.884
 20
150340.473
 10
-251243.34
 20
150340.612
 10
-251242.799
 20
150340.759
 10
-251242.258
 20
150340.916
 10
-251241.722
 20
150341.078
 10
-251241.187
 20
150341.249
 10
-251240.654
 20
150341.428
 10
-251240.125
 20
150341.614
 10
-251239.598
 20
150341.808
 10
-251239.074
 20
150342.01
 10
-251238.552
 20
150342.218
 10
-251238.035
 20
150342.435
 10
-251237.52
 20
150342.659
 10
-251237.008
 20
150342.89
 10
-251236.5
 20
150343.129
 10
-251235.995
 20
150343.375
 10
-251235.494
 20
150343.628
 10
-251234.996
 20
150343.888
 10
-251234.502
 20
150344.156
 10
-251234.013
 20
150344.431
 10
-251233.528
 20
150344.712
 10
-251233.046
 20
150345.001
 10
-251232.569
 20
150345.297
 10
-251232.095
 20
150345.598
 10
-251231.627
 20
150345.908
 10
-251231.162
 20
150346.224
 10
-251230.703
 20
150346.546
 10
-251230.248
 20
150346.876
 10
-251229.798
 20
150347.211
 10
-251229.353
 20
150347.554
 10
-251228.913
 20
150347.902
 10
-251215.22
 20
150358.907
 10
-251212.522
 20
150355.465
 10
-251210.811
 20
150353.387
 10
-251209.655
 20
150352.004
 10
-251209.278
 20
150351.559
 10
-251205.916
 20
150347.767
 10
-251205.656
 20
150347.476
 10
-251203.583
 20
150344.929
 10
-251202.847
 20
150343.86
 10
-251199.857
 20
150339.813
 10
-251196.685
 20
150335.925
 10
-251193.469
 20
150332.082
 10
-251190.198
 20
150328.294
 10
-251186.968
 20
150324.51
 10
-251184.033
 20
150320.478
 10
-251181.009
 20
150316.478
 10
-251177.938
 20
150312.527
 10
-251176.103
 20
150310.151
 10
-251174.864
 20
150308.577
 10
-251172.968
 20
150306.181
 10
-251171.328
 20
150304.086
 10
-251168.665
 20
150300.188
 10
-251171.669
 20
150296.824
 10
-251175.035
 20
150293.135
 10
-251178.492
 20
150289.557
 10
-251182.14
 20
150286.152
 10
-251185.758
 20
150282.69
 10
-251189.36
 20
150279.209
 10
-251192.873
 20
150275.627
 10
-251196.291
 20
150271.97
 10
-251199.747
 20
150268.386
 10
-251203.402
 20
150264.999
 10
-251207.082
 20
150261.608
 10
-251210.758
 20
150258.21
 10
-251214.407
 20
150254.774
 10
-251217.972
 20
150251.251
 10
-251221.489
 20
150247.68
 10
-251224.929
 20
150244.033
 10
-251228.311
 20
150240.332
 10
-251231.649
 20
150236.634
  0
LWPOLYLINE
  5
39EA
330
44B0
100
AcDbEntity
  8
Måleblad stip 0_15
  6
DGN Style 3
 62
     7
370
     0
100
AcDbPolyline
 90
      394
 70
   128
 43
0.0
 10
-251299.252
 20
150371.95
 10
-251300.967
 20
150370.342
 10
-251302.741
 20
150368.586
 10
-251302.92
 20
150368.409
 10
-251303.067
 20
150368.264
 10
-251303.68
 20
150367.648
 10
-251303.699
 20
150367.626
 10
-251305.603
 20
150365.656
 10
-251305.633
 20
150365.623
 10
-251305.656
 20
150365.601
 10
-251306.124
 20
150365.101
 10
-251307.527
 20
150363.574
 10
-251307.545
 20
150363.552
 10
-251309.726
 20
150361.121
 10
-251311.079
 20
150359.418
 10
-251311.098
 20
150359.392
 10
-251312.28
 20
150357.905
 10
-251312.43
 20
150357.714
 10
-251312.691
 20
150357.378
 10
-251312.753
 20
150357.299
 10
-251312.769
 20
150357.277
 10
-251314.359
 20
150355.182
 10
-251314.376
 20
150355.16
 10
-251314.883
 20
150354.473
 10
-251315.352
 20
150353.827
 10
-251315.896
 20
150353.066
 10
-251315.912
 20
150353.045
 10
-251316.988
 20
150351.505
 10
-251317.413
 20
150350.876
 10
-251317.428
 20
150350.853
 10
-251318.065
 20
150349.87
 10
-251318.266
 20
150349.551
 10
-251318.91
 20
150348.487
 10
-251318.924
 20
150348.464
 10
-251319.459
 20
150347.537
 10
-251320.221
 20
150346.138
 10
-251320.232
 20
150346.116
 10
-251320.403
 20
150345.789
 10
-251320.563
 20
150345.474
 10
-251321.355
 20
150343.849
 10
-251321.363
 20
150343.83
 10
-251321.577
 20
150343.365
 10
-251322.131
 20
150342.049
 10
-251322.288
 20
150341.66
 10
-251322.294
 20
150341.643
 10
-251322.347
 20
150341.509
 10
-251322.469
 20
150341.197
 10
-251322.534
 20
150341.032
 10
-251322.646
 20
150340.737
 10
-251322.688
 20
150340.626
 10
-251322.879
 20
150340.105
 10
-251322.954
 20
150339.9
 10
-251323.02
 20
150339.712
 10
-251323.171
 20
150339.283
 10
-251323.213
 20
150339.158
 10
-251323.266
 20
150338.998
 10
-251323.291
 20
150338.919
 10
-251323.403
 20
150338.572
 10
-251323.425
 20
150338.508
 10
-251323.509
 20
150338.238
 10
-251323.559
 20
150338.074
 10
-251323.491
 20
150338.081
 10
-251323.424
 20
150338.088
 10
-251323.356
 20
150338.095
 10
-251323.288
 20
150338.103
 10
-251323.22
 20
150338.111
 10
-251323.152
 20
150338.119
 10
-251323.085
 20
150338.128
 10
-251323.017
 20
150338.137
 10
-251322.95
 20
150338.147
 10
-251322.882
 20
150338.157
 10
-251322.814
 20
150338.166
 10
-251322.747
 20
150338.177
 10
-251322.68
 20
150338.189
 10
-251322.612
 20
150338.199
 10
-251322.545
 20
150338.211
 10
-251322.478
 20
150338.224
 10
-251322.412
 20
150338.235
 10
-251322.344
 20
150338.248
 10
-251322.277
 20
150338.262
 10
-251322.21
 20
150338.274
 10
-251322.143
 20
150338.289
 10
-251322.077
 20
150338.303
 10
-251322.01
 20
150338.317
 10
-251321.943
 20
150338.332
 10
-251321.877
 20
150338.348
 10
-251321.811
 20
150338.363
 10
-251321.744
 20
150338.379
 10
-251321.678
 20
150338.395
 10
-251321.612
 20
150338.412
 10
-251321.545
 20
150338.428
 10
-251321.479
 20
150338.446
 10
-251321.413
 20
150338.464
 10
-251321.348
 20
150338.481
 10
-251321.282
 20
150338.5
 10
-251321.216
 20
150338.519
 10
-251321.151
 20
150338.537
 10
-251321.085
 20
150338.557
 10
-251321.02
 20
150338.577
 10
-251320.955
 20
150338.597
 10
-251320.89
 20
150338.617
 10
-251320.825
 20
150338.638
 10
-251320.76
 20
150338.659
 10
-251320.695
 20
150338.68
 10
-251320.63
 20
150338.702
 10
-251320.566
 20
150338.725
 10
-251320.501
 20
150338.747
 10
-251320.437
 20
150338.769
 10
-251320.373
 20
150338.793
 10
-251320.309
 20
150338.817
 10
-251320.245
 20
150338.841
 10
-251320.181
 20
150338.864
 10
-251320.117
 20
150338.889
 10
-251320.054
 20
150338.914
 10
-251319.99
 20
150338.94
 10
-251319.927
 20
150338.964
 10
-251319.864
 20
150338.99
 10
-251319.801
 20
150339.017
 10
-251319.738
 20
150339.044
 10
-251319.675
 20
150339.07
 10
-251319.613
 20
150339.097
 10
-251319.55
 20
150339.125
 10
-251319.488
 20
150339.153
 10
-251319.426
 20
150339.18
 10
-251319.363
 20
150339.209
 10
-251319.302
 20
150339.238
 10
-251319.24
 20
150339.268
 10
-251319.179
 20
150339.297
 10
-251319.118
 20
150339.326
 10
-251319.056
 20
150339.357
 10
-251318.996
 20
150339.387
 10
-251318.934
 20
150339.418
 10
-251318.873
 20
150339.45
 10
-251318.813
 20
150339.48
 10
-251318.753
 20
150339.512
 10
-251318.692
 20
150339.545
 10
-251318.633
 20
150339.577
 10
-251318.572
 20
150339.61
 10
-251318.512
 20
150339.642
 10
-251318.454
 20
150339.676
 10
-251318.394
 20
150339.71
 10
-251318.334
 20
150339.744
 10
-251318.276
 20
150339.778
 10
-251318.217
 20
150339.813
 10
-251318.158
 20
150339.847
 10
-251318.099
 20
150339.882
 10
-251318.042
 20
150339.918
 10
-251317.984
 20
150339.954
 10
-251317.926
 20
150339.99
 10
-251317.868
 20
150340.027
 10
-251317.811
 20
150340.064
 10
-251317.753
 20
150340.101
 10
-251317.696
 20
150340.137
 10
-251317.639
 20
150340.175
 10
-251317.582
 20
150340.213
 10
-251317.526
 20
150340.252
 10
-251317.47
 20
150340.29
 10
-251317.414
 20
150340.329
 10
-251317.357
 20
150340.369
 10
-251317.302
 20
150340.408
 10
-251317.247
 20
150340.448
 10
-251292.526
 20
150358.271
 10
-251292.495
 20
150358.293
 10
-251292.466
 20
150358.316
 10
-251292.436
 20
150358.339
 10
-251292.407
 20
150358.363
 10
-251292.377
 20
150358.387
 10
-251292.349
 20
150358.411
 10
-251292.321
 20
150358.436
 10
-251292.294
 20
150358.461
 10
-251292.266
 20
150358.488
 10
-251292.24
 20
150358.514
 10
-251292.213
 20
150358.541
 10
-251292.187
 20
150358.567
 10
-251292.161
 20
150358.595
 10
-251292.137
 20
150358.623
 10
-251292.112
 20
150358.652
 10
-251292.087
 20
150358.68
 10
-251292.064
 20
150358.71
 10
-251292.04
 20
150358.738
 10
-251292.018
 20
150358.769
 10
-251291.995
 20
150358.799
 10
-251291.973
 20
150358.829
 10
-251291.952
 20
150358.861
 10
-251291.931
 20
150358.891
 10
-251291.91
 20
150358.923
 10
-251291.891
 20
150358.956
 10
-251291.871
 20
150358.987
 10
-251291.853
 20
150359.02
 10
-251291.834
 20
150359.053
 10
-251291.816
 20
150359.086
 10
-251291.799
 20
150359.119
 10
-251291.782
 20
150359.153
 10
-251291.766
 20
150359.187
 10
-251291.75
 20
150359.221
 10
-251291.735
 20
150359.256
 10
-251291.72
 20
150359.29
 10
-251291.706
 20
150359.325
 10
-251291.693
 20
150359.36
 10
-251291.68
 20
150359.396
 10
-251291.667
 20
150359.43
 10
-251291.655
 20
150359.466
 10
-251291.645
 20
150359.502
 10
-251291.634
 20
150359.539
 10
-251291.623
 20
150359.575
 10
-251291.615
 20
150359.61
 10
-251291.605
 20
150359.647
 10
-251291.597
 20
150359.684
 10
-251291.589
 20
150359.721
 10
-251291.582
 20
150359.758
 10
-251291.575
 20
150359.795
 10
-251291.569
 20
150359.832
 10
-251291.563
 20
150359.869
 10
-251291.559
 20
150359.907
 10
-251291.555
 20
150359.943
 10
-251291.551
 20
150359.981
 10
-251291.548
 20
150360.018
 10
-251291.546
 20
150360.056
 10
-251291.544
 20
150360.093
 10
-251291.542
 20
150360.131
 10
-251291.541
 20
150360.168
 10
-251291.542
 20
150360.206
 10
-251291.542
 20
150360.244
 10
-251291.543
 20
150360.281
 10
-251291.545
 20
150360.319
 10
-251291.548
 20
150360.357
 10
-251291.55
 20
150360.394
 10
-251291.553
 20
150360.432
 10
-251291.557
 20
150360.469
 10
-251291.563
 20
150360.506
 10
-251291.568
 20
150360.543
 10
-251291.573
 20
150360.58
 10
-251291.579
 20
150360.617
 10
-251291.587
 20
150360.654
 10
-251291.595
 20
150360.692
 10
-251291.602
 20
150360.728
 10
-251291.612
 20
150360.765
 10
-251291.621
 20
150360.801
 10
-251291.631
 20
150360.837
 10
-251291.641
 20
150360.874
 10
-251291.653
 20
150360.909
 10
-251291.664
 20
150360.945
 10
-251291.676
 20
150360.98
 10
-251291.689
 20
150361.016
 10
-251291.703
 20
150361.051
 10
-251291.716
 20
150361.086
 10
-251291.731
 20
150361.121
 10
-251291.746
 20
150361.155
 10
-251291.761
 20
150361.189
 10
-251291.777
 20
150361.224
 10
-251291.794
 20
150361.257
 10
-251291.811
 20
150361.29
 10
-251291.829
 20
150361.324
 10
-251291.847
 20
150361.357
 10
-251291.866
 20
150361.389
 10
-251291.885
 20
150361.422
 10
-251291.905
 20
150361.453
 10
-251291.925
 20
150361.485
 10
-251291.946
 20
150361.516
 10
-251291.967
 20
150361.548
 10
-251291.989
 20
150361.578
 10
-251292.011
 20
150361.608
 10
-251292.106
 20
150361.738
 10
-251292.201
 20
150361.869
 10
-251292.293
 20
150362.001
 10
-251292.385
 20
150362.134
 10
-251292.475
 20
150362.268
 10
-251292.563
 20
150362.403
 10
-251292.65
 20
150362.539
 10
-251292.736
 20
150362.674
 10
-251292.82
 20
150362.812
 10
-251292.903
 20
150362.951
 10
-251292.984
 20
150363.09
 10
-251293.063
 20
150363.23
 10
-251293.141
 20
150363.371
 10
-251293.219
 20
150363.513
 10
-251293.294
 20
150363.656
 10
-251293.367
 20
150363.799
 10
-251293.439
 20
150363.943
 10
-251293.51
 20
150364.089
 10
-251293.579
 20
150364.234
 10
-251293.647
 20
150364.381
 10
-251293.713
 20
150364.528
 10
-251293.777
 20
150364.675
 10
-251293.84
 20
150364.824
 10
-251293.901
 20
150364.973
 10
-251293.96
 20
150365.123
 10
-251294.018
 20
150365.273
 10
-251294.075
 20
150365.425
 10
-251294.129
 20
150365.576
 10
-251294.183
 20
150365.728
 10
-251294.234
 20
150365.881
 10
-251294.284
 20
150366.034
 10
-251294.332
 20
150366.188
 10
-251294.379
 20
150366.342
 10
-251294.424
 20
150366.497
 10
-251294.467
 20
150366.652
 10
-251294.509
 20
150366.808
 10
-251294.548
 20
150366.964
 10
-251294.587
 20
150367.121
 10
-251294.623
 20
150367.278
 10
-251294.658
 20
150367.435
 10
-251294.692
 20
150367.593
 10
-251294.724
 20
150367.751
 10
-251294.754
 20
150367.91
 10
-251294.782
 20
150368.068
 10
-251294.808
 20
150368.228
 10
-251294.833
 20
150368.386
 10
-251294.856
 20
150368.546
 10
-251294.878
 20
150368.706
 10
-251294.898
 20
150368.866
 10
-251294.915
 20
150369.026
 10
-251294.932
 20
150369.187
 10
-251294.946
 20
150369.347
 10
-251294.959
 20
150369.508
 10
-251294.971
 20
150369.669
 10
-251294.98
 20
150369.83
 10
-251294.988
 20
150369.99
 10
-251294.994
 20
150370.152
 10
-251294.998
 20
150370.313
 10
-251295.001
 20
150370.474
 10
-251295.001
 20
150370.636
 10
-251295.001
 20
150370.797
 10
-251294.998
 20
150370.958
 10
-251294.994
 20
150371.119
 10
-251294.989
 20
150371.28
 10
-251294.98
 20
150371.441
 10
-251294.971
 20
150371.602
 10
-251294.96
 20
150371.763
 10
-251294.947
 20
150371.924
 10
-251294.932
 20
150372.084
 10
-251294.916
 20
150372.245
 10
-251294.898
 20
150372.405
 10
-251294.879
 20
150372.565
 10
-251294.858
 20
150372.725
 10
-251294.834
 20
150372.884
 10
-251294.809
 20
150373.043
 10
-251294.783
 20
150373.203
 10
-251294.755
 20
150373.362
 10
-251294.725
 20
150373.52
 10
-251294.694
 20
150373.677
 10
-251294.66
 20
150373.836
 10
-251294.625
 20
150373.993
 10
-251294.589
 20
150374.151
 10
-251294.551
 20
150374.307
 10
-251294.511
 20
150374.463
 10
-251294.47
 20
150374.618
 10
-251294.426
 20
150374.774
 10
-251294.381
 20
150374.929
 10
-251294.334
 20
150375.083
 10
-251294.286
 20
150375.237
 10
-251294.236
 20
150375.39
 10
-251294.185
 20
150375.543
 10
-251294.132
 20
150375.695
 10
-251294.077
 20
150375.847
 10
-251294.021
 20
150375.998
 10
-251293.963
 20
150376.149
 10
-251293.904
 20
150376.298
 10
-251293.843
 20
150376.448
 10
-251293.78
 20
150376.597
 10
-251293.716
 20
150376.745
 10
-251293.65
 20
150376.891
 10
-251294.214
 20
150376.42
 10
-251294.259
 20
150376.381
 10
-251294.284
 20
150376.362
 10
-251294.888
 20
150375.849
 10
-251295.024
 20
150375.733
 10
-251295.077
 20
150375.688
 10
-251295.095
 20
150375.674
 10
-251295.469
 20
150375.352
 10
-251295.631
 20
150375.211
 10
-251295.791
 20
150375.072
 10
-251295.884
 20
150374.992
 10
-251296.023
 20
150374.87
 10
-251296.51
 20
150374.441
 10
-251296.552
 20
150374.405
 10
-251296.619
 20
150374.345
 10
-251297.051
 20
150373.963
 10
-251297.178
 20
150373.849
 10
-251297.301
 20
150373.739
 10
-251297.52
 20
150373.542
 10
-251297.791
 20
150373.297
 10
-251297.804
 20
150373.285
 10
-251297.921
 20
150373.179
 10
-251297.957
 20
150373.146
 10
-251298.342
 20
150372.794
 10
-251298.36
 20
150372.777
 10
-251298.477
 20
150372.67
 10
-251298.728
 20
150372.437
 10
-251298.831
 20
150372.342
 10
-251298.964
 20
150372.219
 10
-251299.06
 20
150372.131
 10
-251299.24
 20
150371.96
 10
-251299.252
 20
150371.95
  0
LWPOLYLINE
  5
39EB
330
44B0
100
AcDbEntity
  8
Måleblad stip 0_15
  6
DGN Style 3
 62
     7
370
     0
100
AcDbPolyline
 90
      253
 70
   128
 43
0.0
 10
-251261.959
 20
150396.191
 10
-251262.795
 20
150395.575
 10
-251265.982
 20
150393.246
 10
-251270.052
 20
150390.332
 10
-251271.129
 20
150389.575
 10
-251274.2
 20
150387.506
 10
-251278.379
 20
150384.748
 10
-251279.68
 20
150383.902
 10
-251281.057
 20
150382.978
 10
-251284.676
 20
150379.89
 10
-251284.854
 20
150379.738
 10
-251285.628
 20
150379.088
 10
-251285.995
 20
150378.752
 10
-251286.015
 20
150378.731
 10
-251286.057
 20
150378.692
 10
-251286.293
 20
150378.453
 10
-251286.384
 20
150378.359
 10
-251286.46
 20
150378.276
 10
-251286.827
 20
150377.858
 10
-251286.891
 20
150377.78
 10
-251286.893
 20
150377.778
 10
-251286.954
 20
150377.7
 10
-251287.098
 20
150377.518
 10
-251287.284
 20
150377.268
 10
-251287.43
 20
150377.058
 10
-251287.466
 20
150377.005
 10
-251287.641
 20
150376.739
 10
-251287.903
 20
150376.302
 10
-251287.918
 20
150376.274
 10
-251288.232
 20
150375.712
 10
-251289.267
 20
150376.104
 10
-251289.34
 20
150375.978
 10
-251289.41
 20
150375.851
 10
-251289.479
 20
150375.723
 10
-251289.547
 20
150375.594
 10
-251289.611
 20
150375.464
 10
-251289.676
 20
150375.333
 10
-251289.738
 20
150375.201
 10
-251289.797
 20
150375.07
 10
-251289.856
 20
150374.936
 10
-251289.913
 20
150374.802
 10
-251289.967
 20
150374.668
 10
-251290.02
 20
150374.532
 10
-251290.072
 20
150374.396
 10
-251290.121
 20
150374.259
 10
-251290.168
 20
150374.121
 10
-251290.214
 20
150373.983
 10
-251290.258
 20
150373.845
 10
-251290.3
 20
150373.706
 10
-251290.34
 20
150373.566
 10
-251290.378
 20
150373.425
 10
-251290.415
 20
150373.284
 10
-251290.449
 20
150373.143
 10
-251290.482
 20
150373.001
 10
-251290.513
 20
150372.859
 10
-251290.542
 20
150372.716
 10
-251290.568
 20
150372.574
 10
-251290.593
 20
150372.43
 10
-251290.616
 20
150372.286
 10
-251290.637
 20
150372.143
 10
-251290.656
 20
150371.998
 10
-251290.674
 20
150371.854
 10
-251290.689
 20
150371.709
 10
-251290.702
 20
150371.565
 10
-251290.713
 20
150371.42
 10
-251290.723
 20
150371.274
 10
-251290.73
 20
150371.129
 10
-251290.736
 20
150370.984
 10
-251290.74
 20
150370.838
 10
-251290.741
 20
150370.693
 10
-251290.741
 20
150370.548
 10
-251290.739
 20
150370.402
 10
-251290.735
 20
150370.257
 10
-251290.729
 20
150370.111
 10
-251290.72
 20
150369.966
 10
-251290.71
 20
150369.821
 10
-251290.699
 20
150369.676
 10
-251290.685
 20
150369.531
 10
-251290.669
 20
150369.387
 10
-251290.652
 20
150369.242
 10
-251290.632
 20
150369.098
 10
-251290.611
 20
150368.954
 10
-251290.586
 20
150368.811
 10
-251290.561
 20
150368.667
 10
-251290.534
 20
150368.525
 10
-251290.505
 20
150368.382
 10
-251290.474
 20
150368.24
 10
-251290.441
 20
150368.099
 10
-251290.405
 20
150367.957
 10
-251290.368
 20
150367.816
 10
-251290.33
 20
150367.676
 10
-251290.29
 20
150367.536
 10
-251290.246
 20
150367.397
 10
-251290.202
 20
150367.258
 10
-251290.156
 20
150367.12
 10
-251290.109
 20
150366.983
 10
-251290.058
 20
150366.847
 10
-251290.007
 20
150366.711
 10
-251289.954
 20
150366.576
 10
-251289.898
 20
150366.441
 10
-251289.841
 20
150366.308
 10
-251289.783
 20
150366.174
 10
-251289.721
 20
150366.042
 10
-251289.659
 20
150365.911
 10
-251289.595
 20
150365.78
 10
-251289.529
 20
150365.65
 10
-251289.462
 20
150365.522
 10
-251289.392
 20
150365.394
 10
-251289.322
 20
150365.267
 10
-251289.248
 20
150365.141
 10
-251289.174
 20
150365.016
 10
-251289.098
 20
150364.892
 10
-251289.02
 20
150364.769
 10
-251288.941
 20
150364.647
 10
-251288.86
 20
150364.526
 10
-251288.777
 20
150364.406
 10
-251288.693
 20
150364.288
 10
-251288.607
 20
150364.171
 10
-251288.52
 20
150364.054
 10
-251288.431
 20
150363.939
 10
-251288.341
 20
150363.825
 10
-251288.249
 20
150363.713
 10
-251288.155
 20
150363.601
 10
-251288.06
 20
150363.491
 10
-251287.963
 20
150363.382
 10
-251287.865
 20
150363.275
 10
-251287.767
 20
150363.168
 10
-251287.666
 20
150363.063
 10
-251287.564
 20
150362.959
 10
-251287.461
 20
150362.857
 10
-251287.356
 20
150362.756
 10
-251277.191
 20
150353.106
 10
-251276.827
 20
150352.766
 10
-251276.459
 20
150352.43
 10
-251276.085
 20
150352.101
 10
-251275.706
 20
150351.776
 10
-251275.325
 20
150351.457
 10
-251274.937
 20
150351.144
 10
-251274.546
 20
150350.836
 10
-251274.149
 20
150350.534
 10
-251273.749
 20
150350.237
 10
-251273.344
 20
150349.947
 10
-251272.935
 20
150349.661
 10
-251272.522
 20
150349.383
 10
-251272.106
 20
150349.11
 10
-251271.685
 20
150348.843
 10
-251271.261
 20
150348.581
 10
-251270.833
 20
150348.327
 10
-251270.4
 20
150348.078
 10
-251269.965
 20
150347.836
 10
-251269.526
 20
150347.6
 10
-251269.085
 20
150347.37
 10
-251268.639
 20
150347.146
 10
-251268.191
 20
150346.929
 10
-251267.739
 20
150346.719
 10
-251267.285
 20
150346.515
 10
-251266.828
 20
150346.318
 10
-251266.367
 20
150346.126
 10
-251265.905
 20
150345.942
 10
-251265.439
 20
150345.765
 10
-251264.971
 20
150345.594
 10
-251264.5
 20
150345.43
 10
-251264.028
 20
150345.272
 10
-251263.553
 20
150345.122
 10
-251263.075
 20
150344.978
 10
-251262.597
 20
150344.842
 10
-251262.115
 20
150344.711
 10
-251261.632
 20
150344.588
 10
-251261.148
 20
150344.472
 10
-251260.662
 20
150344.363
 10
-251260.174
 20
150344.261
 10
-251259.686
 20
150344.166
 10
-251259.195
 20
150344.077
 10
-251258.704
 20
150343.996
 10
-251258.211
 20
150343.923
 10
-251257.717
 20
150343.856
 10
-251257.223
 20
150343.796
 10
-251256.727
 20
150343.744
 10
-251256.231
 20
150343.698
 10
-251255.734
 20
150343.66
 10
-251255.237
 20
150343.628
 10
-251254.739
 20
150343.604
 10
-251254.241
 20
150343.587
 10
-251253.743
 20
150343.577
 10
-251253.245
 20
150343.574
 10
-251252.747
 20
150343.579
 10
-251252.248
 20
150343.59
 10
-251251.751
 20
150343.609
 10
-251251.253
 20
150343.636
 10
-251250.756
 20
150343.669
 10
-251250.26
 20
150343.709
 10
-251249.764
 20
150343.756
 10
-251249.268
 20
150343.811
 10
-251248.774
 20
150343.872
 10
-251248.28
 20
150343.941
 10
-251247.788
 20
150344.017
 10
-251247.296
 20
150344.1
 10
-251246.806
 20
150344.189
 10
-251246.318
 20
150344.286
 10
-251245.831
 20
150344.39
 10
-251245.345
 20
150344.501
 10
-251244.861
 20
150344.619
 10
-251244.379
 20
150344.744
 10
-251243.898
 20
150344.875
 10
-251243.419
 20
150345.014
 10
-251242.943
 20
150345.16
 10
-251242.469
 20
150345.312
 10
-251241.996
 20
150345.471
 10
-251241.527
 20
150345.637
 10
-251241.059
 20
150345.809
 10
-251240.594
 20
150345.989
 10
-251240.132
 20
150346.175
 10
-251239.673
 20
150346.367
 10
-251239.216
 20
150346.566
 10
-251238.763
 20
150346.772
 10
-251238.311
 20
150346.984
 10
-251237.863
 20
150347.203
 10
-251237.42
 20
150347.428
 10
-251236.978
 20
150347.659
 10
-251236.54
 20
150347.897
 10
-251236.106
 20
150348.141
 10
-251235.675
 20
150348.391
 10
-251235.248
 20
150348.648
 10
-251234.824
 20
150348.911
 10
-251234.404
 20
150349.178
 10
-251233.989
 20
150349.453
 10
-251233.577
 20
150349.734
 10
-251233.17
 20
150350.02
 10
-251232.766
 20
150350.312
 10
-251232.367
 20
150350.61
 10
-251231.971
 20
150350.914
 10
-251231.581
 20
150351.223
 10
-251217.777
 20
150362.316
 10
-251218.674
 20
150363.517
 10
-251220.369
 20
150365.843
 10
-251221.102
 20
150366.863
 10
-251221.647
 20
150367.623
 10
-251224.501
 20
150371.805
 10
-251226.399
 20
150374.586
 10
-251227.383
 20
150375.93
 10
-251230.366
 20
150380.0
 10
-251231.94
 20
150382.107
 10
-251233.346
 20
150384.083
 10
-251236.358
 20
150388.126
 10
-251237.495
 20
150389.621
 10
-251239.38
 20
150392.133
 10
-251242.457
 20
150396.066
 10
-251245.611
 20
150399.959
 10
-251248.868
 20
150404.052
 10
-251253.457
 20
150401.395
 10
-251254.158
 20
150400.986
 10
-251257.766
 20
150398.862
 10
-251261.959
 20
150396.191
  0
LWPOLYLINE
  5
39EC
330
44B0
100
AcDbEntity
  8
Måleblad stip 0_15
  6
DGN Style 3
 62
     7
370
     0
100
AcDbPolyline
 90
       76
 70
   128
 43
0.0
 10
-251398.182
 20
150307.341
 10
-251397.035
 20
150299.322
 10
-251396.379
 20
150295.306
 10
-251395.869
 20
150292.392
 10
-251395.516
 20
150290.309
 10
-251394.841
 20
150286.751
 10
-251394.591
 20
150285.484
 10
-251394.559
 20
150285.328
 10
-251393.595
 20
150280.364
 10
-251393.413
 20
150279.302
 10
-251393.29
 20
150278.605
 10
-251392.69
 20
150275.384
 10
-251391.971
 20
150271.721
 10
-251391.715
 20
150270.435
 10
-251390.745
 20
150265.534
 10
-251389.875
 20
150260.609
 10
-251388.877
 20
150255.706
 10
-251388.502
 20
150253.688
 10
-251387.982
 20
150250.795
 10
-251387.115
 20
150245.871
 10
-251387.022
 20
150245.345
 10
-251386.486
 20
150242.054
 10
-251385.386
 20
150235.961
 10
-251384.649
 20
150232.074
 10
-251384.425
 20
150230.956
 10
-251383.91
 20
150228.452
 10
-251383.663
 20
150227.309
 10
-251383.353
 20
150225.931
 10
-251382.522
 20
150222.579
 10
-251382.106
 20
150220.949
 10
-251381.276
 20
150217.874
 10
-251380.973
 20
150216.818
 10
-251380.73
 20
150215.995
 10
-251379.86
 20
150213.211
 10
-251379.141
 20
150211.102
 10
-251378.234
 20
150208.627
 10
-251377.446
 20
150206.273
 10
-251377.158
 20
150205.451
 10
-251376.649
 20
150204.034
 10
-251375.666
 20
150201.448
 10
-251374.856
 20
150199.505
 10
-251373.646
 20
150196.725
 10
-251372.887
 20
150195.061
 10
-251372.571
 20
150194.372
 10
-251371.511
 20
150192.064
 10
-251370.826
 20
150190.657
 10
-251369.21
 20
150187.417
 10
-251365.082
 20
150178.337
 10
-251361.252
 20
150171.04
 10
-251352.902
 20
150156.959
 10
-251352.561
 20
150156.423
 10
-251352.236
 20
150155.912
 10
-251351.49
 20
150154.756
 10
-251351.449
 20
150154.694
 10
-251349.89
 20
150152.326
 10
-251349.41
 20
150151.607
 10
-251347.122
 20
150148.324
 10
-251346.451
 20
150147.384
 10
-251344.228
 20
150144.39
 10
-251343.378
 20
150143.251
 10
-251341.713
 20
150140.988
 10
-251341.461
 20
150140.599
 10
-251340.526
 20
150139.178
 10
-251340.373
 20
150138.948
 10
-251338.685
 20
150136.39
 10
-251335.665
 20
150129.792
 10
-251333.916
 20
150127.045
 10
-251333.506
 20
150126.412
 10
-251332.965
 20
150125.591
 10
-251331.388
 20
150123.281
 10
-251329.746
 20
150121.011
 10
-251329.149
 20
150120.356
 10
-251328.002
 20
150119.18
 10
-251326.84
 20
150117.897
 10
-251329.789
 20
150114.818
 10
-251329.517
 20
150113.737
  0
LWPOLYLINE
  5
39ED
330
44B0
100
AcDbEntity
  8
Måleblad stip 0_15
  6
DGN Style 3
 62
     7
370
     0
100
AcDbPolyline
 90
       39
 70
   128
 43
0.0
 10
-251296.162
 20
150121.433
 10
-251297.14
 20
150121.584
 10
-251298.11
 20
150121.774
 10
-251299.072
 20
150122.004
 10
-251300.025
 20
150122.272
 10
-251300.965
 20
150122.579
 10
-251301.893
 20
150122.923
 10
-251302.804
 20
150123.305
 10
-251303.701
 20
150123.724
 10
-251304.579
 20
150124.179
 10
-251305.439
 20
150124.668
 10
-251306.278
 20
150125.193
 10
-251307.094
 20
150125.751
 10
-251307.888
 20
150126.342
 10
-251308.657
 20
150126.964
 10
-251321.158
 20
150139.888
 10
-251318.997
 20
150141.729
 10
-251316.807
 20
150143.538
 10
-251314.593
 20
150145.315
 10
-251312.351
 20
150147.059
 10
-251310.083
 20
150148.769
 10
-251307.791
 20
150150.446
 10
-251303.127
 20
150153.778
 10
-251295.419
 20
150159.487
 10
-251287.847
 20
150165.375
 10
-251280.416
 20
150171.439
 10
-251273.129
 20
150177.676
 10
-251265.991
 20
150184.082
 10
-251259.004
 20
150190.653
 10
-251148.021
 20
150301.504
 10
-251179.448
 20
150337.069
 10
-251195.197
 20
150356.39
 10
-251204.206
 20
150368.422
 10
-251216.323
 20
150384.036
 10
-251230.254
 20
150404.624
 10
-251217.216
 20
150428.225
 10
-251189.049
 20
150448.985
 10
-251160.2
 20
150468.796
 10
-251137.336
 20
150487.783
  0
LWPOLYLINE
  5
39F3
330
44B0
100
AcDbEntity
  8
Måleblad fuld 0_35
  6
Continuous
 62
     7
370
    13
100
AcDbPolyline
 90
        2
 70
   128
 43
0.0
 10
-250837.936
 20
150570.855
 10
-250878.2
 20
150530.968
  0
LWPOLYLINE
  5
39F4
330
44B0
100
AcDbEntity
  8
Måleblad fuld 0_35
  6
Continuous
 62
     7
370
    13
100
AcDbPolyline
 90
        2
 70
   128
 43
0.0
 10
-251244.845
 20
150158.866
 10
-251269.407
 20
150135.502
  0
LWPOLYLINE
  5
39F6
330
44B0
100
AcDbEntity
  8
Måleblad fuld 0_35
  6
Continuous
 62
     7
370
    13
100
AcDbPolyline
 90
        2
 70
   128
 43
0.0
 10
-250957.997
 20
150684.745
 10
-250989.127
 20
150576.657
  0
LWPOLYLINE
  5
39F7
330
44B0
100
AcDbEntity
  8
Måleblad fuld 0_35
  6
Continuous
 62
     7
370
    13
100
AcDbPolyline
 90
        2
 70
   128
 43
0.0
 10
-251269.407
 20
150135.502
 10
-251280.366
 20
150125.078
  0
LWPOLYLINE
  5
39F9
330
44B0
100
AcDbEntity
  8
Måleblad fuld 0_35
  6
Continuous
 62
     7
370
    13
100
AcDbPolyline
 90
        2
 70
   128
 43
0.0
 10
-251487.632
 20
150281.985
 10
-251503.777
 20
150346.664
  0
LWPOLYLINE
  5
39FB
330
44B0
100
AcDbEntity
  8
Måleblad fuld 0_35
  6
Continuous
 62
     7
370
    13
100
AcDbPolyline
 90
        2
 70
   128
 43
0.0
 10
-251046.213
 20
150358.995
 10
-251035.636
 20
150369.817
  0
LWPOLYLINE
  5
39FC
330
44B0
100
AcDbEntity
  8
Måleblad fuld 0_35
  6
Continuous
 62
     7
370
    13
100
AcDbPolyline
 90
        2
 70
   128
 43
0.0
 10
-251250.633
 20
150079.782
 10
-251260.961
 20
150087.248
  0
LWPOLYLINE
  5
39FE
330
44B0
100
AcDbEntity
  8
Måleblad fuld 0_35
  6
Continuous
 62
     7
370
    13
100
AcDbPolyline
 90
        2
 70
   128
 43
0.0
 10
-251001.862
 20
150364.643
 10
-250998.223
 20
150368.595
  0
LWPOLYLINE
  5
39FF
330
44B0
100
AcDbEntity
  8
Måleblad fuld 0_35
  6
Continuous
 62
     7
370
    13
100
AcDbPolyline
 90
        2
 70
   128
 43
0.0
 10
-251015.601
 20
150390.942
 10
-251035.636
 20
150369.817
  0
LWPOLYLINE
  5
3A00
330
44B0
100
AcDbEntity
  8
Måleblad fuld 0_35
  6
Continuous
 62
     7
370
    13
100
AcDbPolyline
 90
        2
 70
   128
 43
0.0
 10
-251585.381
 20
150297.991
 10
-251595.477
 20
150287.28
  0
LWPOLYLINE
  5
3A06
330
44B0
100
AcDbEntity
  8
Måleblad fuld 0_35
  6
Continuous
 62
     7
370
    13
100
AcDbPolyline
 90
        2
 70
   128
 43
0.0
 10
-250818.946
 20
150551.483
 10
-250809.67
 20
150560.385
  0
LWPOLYLINE
  5
3A07
330
44B0
100
AcDbEntity
  8
Måleblad fuld 0_35
  6
Continuous
 62
     7
370
    13
100
AcDbPolyline
 90
        2
 70
   128
 43
0.0
 10
-251547.55
 20
150295.174
 10
-251540.375
 20
150293.326
  0
LWPOLYLINE
  5
3A0D
330
44B0
100
AcDbEntity
  8
Måleblad fuld 0_35
  6
Continuous
 62
     7
370
    13
100
AcDbPolyline
 90
        2
 70
   128
 43
0.0
 10
-250935.983
 20
150470.763
 10
-250940.114
 20
150466.452
  0
LWPOLYLINE
  5
3A0E
330
44B0
100
AcDbEntity
  8
Måleblad fuld 0_35
  6
Continuous
 62
     7
370
    13
100
AcDbPolyline
 90
        2
 70
   128
 43
0.0
 10
-251325.61
 20
150535.739
 10
-251311.43
 20
150538.031
  0
LWPOLYLINE
  5
3A0F
330
44B0
100
AcDbEntity
  8
Måleblad fuld 0_35
  6
Continuous
 62
     7
370
    13
100
AcDbPolyline
 90
        2
 70
   128
 43
0.0
 10
-251325.61
 20
150535.739
 10
-251303.985
 20
150447.463
  0
LWPOLYLINE
  5
3A11
330
44B0
100
AcDbEntity
  8
Måleblad fuld 0_35
  6
Continuous
 62
     7
370
    13
100
AcDbPolyline
 90
        2
 70
   128
 43
0.0
 10
-250878.2
 20
150530.968
 10
-250909.725
 20
150498.158
  0
LWPOLYLINE
  5
3A12
330
44B0
100
AcDbEntity
  8
Måleblad fuld 0_35
  6
Continuous
 62
     7
370
    13
100
AcDbPolyline
 90
        2
 70
   128
 43
0.0
 10
-250897.266
 20
150469.35
 10
-250922.849
 20
150445.697
  0
LWPOLYLINE
  5
3A14
330
44B0
100
AcDbEntity
  8
Måleblad fuld 0_35
  6
Continuous
 62
     7
370
    13
100
AcDbPolyline
 90
        2
 70
   128
 43
0.0
 10
-250877.428
 20
150492.136
 10
-250882.083
 20
150486.79
  0
LWPOLYLINE
  5
3A15
330
44B0
100
AcDbEntity
  8
Måleblad fuld 0_35
  6
Continuous
 62
     7
370
    13
100
AcDbPolyline
 90
        2
 70
   128
 43
0.0
 10
-250825.904
 20
150431.357
 10
-250882.083
 20
150486.79
  0
LWPOLYLINE
  5
3A19
330
44B0
100
AcDbEntity
  8
Måleblad fuld 0_35
  6
Continuous
 62
     7
370
    13
100
AcDbPolyline
 90
        2
 70
   128
 43
0.0
 10
-250818.946
 20
150551.483
 10
-250852.444
 20
150517.883
  0
LWPOLYLINE
  5
3A1E
330
44B0
100
AcDbEntity
  8
Måleblad fuld 0_35
  6
Continuous
 62
     7
370
    13
100
AcDbPolyline
 90
        2
 70
   128
 43
0.0
 10
-250909.725
 20
150498.158
 10
-250935.983
 20
150470.763
  0
LWPOLYLINE
  5
3A1F
330
44B0
100
AcDbEntity
  8
Måleblad fuld 0_35
  6
Continuous
 62
     7
370
    13
100
AcDbPolyline
 90
        2
 70
   128
 43
0.0
 10
-250985.963
 20
150381.921
 10
-250926.766
 20
150323.546
  0
LWPOLYLINE
  5
3A22
330
44B0
100
AcDbEntity
  8
Måleblad fuld 0_35
  6
Continuous
 62
     7
370
    13
100
AcDbPolyline
 90
        2
 70
   128
 43
0.0
 10
-251073.096
 20
150291.71
 10
-251085.073
 20
150278.446
  0
LWPOLYLINE
  5
3A23
330
44B0
100
AcDbEntity
  8
Måleblad fuld 0_35
  6
Continuous
 62
     7
370
    13
100
AcDbPolyline
 90
        2
 70
   128
 43
0.0
 10
-250973.44
 20
150394.896
 10
-250985.963
 20
150381.921
  0
LWPOLYLINE
  5
3A28
330
44B0
100
AcDbEntity
  8
Måleblad fuld 0_35
  6
Continuous
 62
     7
370
    13
100
AcDbPolyline
 90
        2
 70
   128
 43
0.0
 10
-250745.406
 20
150490.035
 10
-250818.946
 20
150551.483
  0
LWPOLYLINE
  5
3A30
330
44B0
100
AcDbEntity
  8
Måleblad fuld 0_35
  6
Continuous
 62
     7
370
    13
100
AcDbPolyline
 90
        2
 70
   128
 43
0.0
 10
-251217.126
 20
150141.683
 10
-251254.507
 20
150100.843
  0
LWPOLYLINE
  5
3A33
330
44B0
100
AcDbEntity
  8
Måleblad fuld 0_35
  6
Continuous
 62
     7
370
    13
100
AcDbPolyline
 90
        2
 70
   128
 43
0.0
 10
-251085.073
 20
150278.446
 10
-251016.661
 20
150213.006
  0
LWPOLYLINE
  5
3A38
330
44B0
100
AcDbEntity
  8
Måleblad fuld 0_35
  6
Continuous
 62
     7
370
    13
100
AcDbPolyline
 90
        2
 70
   128
 43
0.0
 10
-251059.489
 20
150345.404
 10
-251081.47
 20
150321.783
  0
LWPOLYLINE
  5
3A3A
330
44B0
100
AcDbEntity
  8
Måleblad fuld 0_35
  6
Continuous
 62
     7
370
    13
100
AcDbPolyline
 90
        2
 70
   128
 43
0.0
 10
-251534.785
 20
150275.233
 10
-251487.632
 20
150281.985
  0
LWPOLYLINE
  5
3A3B
330
44B0
100
AcDbEntity
  8
Måleblad fuld 0_35
  6
Continuous
 62
     7
370
    13
100
AcDbPolyline
 90
        2
 70
   128
 43
0.0
 10
-251196.486
 20
150205.752
 10
-251228.855
 20
150175.25
  0
LWPOLYLINE
  5
3A3C
330
44B0
100
AcDbEntity
  8
Måleblad fuld 0_35
  6
Continuous
 62
     7
370
    13
100
AcDbPolyline
 90
        2
 70
   128
 43
0.0
 10
-251311.43
 20
150538.031
 10
-251307.438
 20
150518.865
  0
LWPOLYLINE
  5
3A3F
330
44B0
100
AcDbEntity
  8
Måleblad fuld 0_35
  6
Continuous
 62
     7
370
    13
100
AcDbPolyline
 90
        2
 70
   128
 43
0.0
 10
-250981.778
 20
150427.95
 10
-250994.527
 20
150416.0
  0
LWPOLYLINE
  5
3A40
330
44B0
100
AcDbEntity
  8
Måleblad fuld 0_35
  6
Continuous
 62
     7
370
    13
100
AcDbPolyline
 90
        2
 70
   128
 43
0.0
 10
-251602.917
 20
150292.077
 10
-251576.797
 20
150308.742
  0
LWPOLYLINE
  5
3A44
330
44B0
100
AcDbEntity
  8
Måleblad fuld 0_35
  6
Continuous
 62
     7
370
    13
100
AcDbPolyline
 90
        2
 70
   128
 43
0.0
 10
-250999.507
 20
150250.299
 10
-251059.753
 20
150307.066
  0
LWPOLYLINE
  5
3A45
330
44B0
100
AcDbEntity
  8
Måleblad fuld 0_35
  6
Continuous
 62
     7
370
    13
100
AcDbPolyline
 90
        2
 70
   128
 43
0.0
 10
-251042.433
 20
150323.127
 10
-251059.753
 20
150307.066
  0
LWPOLYLINE
  5
3A49
330
44B0
100
AcDbEntity
  8
Måleblad fuld 0_35
  6
Continuous
 62
     7
370
    13
100
AcDbPolyline
 90
        2
 70
   128
 43
0.0
 10
-251059.489
 20
150345.404
 10
-251046.213
 20
150358.995
  0
LWPOLYLINE
  5
3A4A
330
44B0
100
AcDbEntity
  8
Måleblad fuld 0_35
  6
Continuous
 62
     7
370
    13
100
AcDbPolyline
 90
        2
 70
   128
 43
0.0
 10
-251557.717
 20
150313.402
 10
-251552.395
 20
150302.833
  0
LWPOLYLINE
  5
3A4B
330
44B0
100
AcDbEntity
  8
Måleblad fuld 0_35
  6
Continuous
 62
     7
370
    13
100
AcDbPolyline
 90
        2
 70
   128
 43
0.0
 10
-251397.602
 20
150443.186
 10
-251581.15
 20
150358.01
  0
LWPOLYLINE
  5
3A4F
330
44B0
100
AcDbEntity
  8
Måleblad fuld 0_35
  6
Continuous
 62
     7
370
    13
100
AcDbPolyline
 90
        2
 70
   128
 43
0.0
 10
-251154.391
 20
150207.81
 10
-251190.134
 20
150170.676
  0
LWPOLYLINE
  5
3A52
330
44B0
100
AcDbEntity
  8
Måleblad fuld 0_35
  6
Continuous
 62
     7
370
    13
100
AcDbPolyline
 90
        2
 70
   128
 43
0.0
 10
-251564.097
 20
150315.803
 10
-251557.717
 20
150313.402
  0
LWPOLYLINE
  5
3A54
330
44B0
100
AcDbEntity
  8
Måleblad fuld 0_35
  6
Continuous
 62
     7
370
    13
100
AcDbPolyline
 90
        2
 70
   128
 43
0.0
 10
-251094.757
 20
150267.725
 10
-251113.953
 20
150249.196
  0
LWPOLYLINE
  5
3A55
330
44B0
100
AcDbEntity
  8
Måleblad fuld 0_35
  6
Continuous
 62
     7
370
    13
100
AcDbPolyline
 90
        2
 70
   128
 43
0.0
 10
-251557.717
 20
150313.402
 10
-251585.381
 20
150297.991
  0
LWPOLYLINE
  5
3A56
330
44B0
100
AcDbEntity
  8
Måleblad fuld 0_35
  6
Continuous
 62
     7
370
    13
100
AcDbPolyline
 90
        2
 70
   128
 43
0.0
 10
-250809.67
 20
150560.385
 10
-250800.925
 20
150569.453
  0
LWPOLYLINE
  5
3A57
330
44B0
100
AcDbEntity
  8
Måleblad fuld 0_35
  6
Continuous
 62
     7
370
    13
100
AcDbPolyline
 90
        2
 70
   128
 43
0.0
 10
-251459.059
 20
150604.213
 10
-250957.997
 20
150684.745
  0
LWPOLYLINE
  5
3A59
330
44B0
100
AcDbEntity
  8
Måleblad fuld 0_35
  6
Continuous
 62
     7
370
    13
100
AcDbPolyline
 90
        2
 70
   128
 43
0.0
 10
-250787.828
 20
150712.425
 10
-250957.997
 20
150684.745
  0
LWPOLYLINE
  5
3A5A
330
44B0
100
AcDbEntity
  8
Måleblad fuld 0_35
  6
Continuous
 62
     7
370
    13
100
AcDbPolyline
 90
        2
 70
   128
 43
0.0
 10
-251280.366
 20
150125.078
 10
-251295.319
 20
150108.367
  0
LWPOLYLINE
  5
3A5B
330
44B0
100
AcDbEntity
  8
Måleblad fuld 0_35
  6
Continuous
 62
     7
370
    13
100
AcDbPolyline
 90
        2
 70
   128
 43
0.0
 10
-251162.367
 20
150239.907
 10
-251196.486
 20
150205.752
  0
LWPOLYLINE
  5
3A65
330
44B0
100
AcDbEntity
  8
Måleblad fuld 0_35
  6
Continuous
 62
     7
370
    13
100
AcDbPolyline
 90
        2
 70
   128
 43
0.0
 10
-251552.395
 20
150302.833
 10
-251547.55
 20
150295.174
  0
LWPOLYLINE
  5
3A68
330
44B0
100
AcDbEntity
  8
Måleblad fuld 0_35
  6
Continuous
 62
     7
370
    13
100
AcDbPolyline
 90
        2
 70
   128
 43
0.0
 10
-251459.059
 20
150604.213
 10
-251416.718
 20
150481.963
  0
LWPOLYLINE
  5
3A6A
330
44B0
100
AcDbEntity
  8
Måleblad fuld 0_35
  6
Continuous
 62
     7
370
    13
100
AcDbPolyline
 90
        2
 70
   128
 43
0.0
 10
-250985.963
 20
150381.921
 10
-250986.644
 20
150381.22
  0
LWPOLYLINE
  5
3A6D
330
44B0
100
AcDbEntity
  8
Måleblad fuld 0_35
  6
Continuous
 62
     7
370
    13
100
AcDbPolyline
 90
        2
 70
   128
 43
0.0
 10
-250998.223
 20
150368.595
 10
-250986.644
 20
150381.22
  0
LWPOLYLINE
  5
3A6F
330
44B0
100
AcDbEntity
  8
Måleblad fuld 0_35
  6
Continuous
 62
     7
370
    13
100
AcDbPolyline
 90
        2
 70
   128
 43
0.0
 10
-251298.323
 20
150528.599
 10
-251274.504
 20
150533.526
  0
LWPOLYLINE
  5
3A71
330
44B0
100
AcDbEntity
  8
Måleblad fuld 0_35
  6
Continuous
 62
     7
370
    13
100
AcDbPolyline
 90
        2
 70
   128
 43
0.0
 10
-250971.75
 20
150396.657
 10
-250973.44
 20
150394.896
  0
LWPOLYLINE
  5
3A72
330
44B0
100
AcDbEntity
  8
Måleblad fuld 0_35
  6
Continuous
 62
     7
370
    13
100
AcDbPolyline
 90
        2
 70
   128
 43
0.0
 10
-250962.162
 20
150445.704
 10
-250981.778
 20
150427.95
  0
LWPOLYLINE
  5
3A73
330
44B0
100
AcDbEntity
  8
Måleblad fuld 0_35
  6
Continuous
 62
     7
370
    13
100
AcDbPolyline
 90
        2
 70
   128
 43
0.0
 10
-251416.718
 20
150481.963
 10
-251685.878
 20
150369.857
  0
LWPOLYLINE
  5
3A75
330
44B0
100
AcDbEntity
  8
Måleblad fuld 0_35
  6
Continuous
 62
     7
370
    13
100
AcDbPolyline
 90
        2
 70
   128
 43
0.0
 10
-251007.44
 20
150359.163
 10
-251001.862
 20
150364.643
  0
LWPOLYLINE
  5
3A77
330
44B0
100
AcDbEntity
  8
Måleblad fuld 0_35
  6
Continuous
 62
     7
370
    13
100
AcDbPolyline
 90
        2
 70
   128
 43
0.0
 10
-251059.753
 20
150307.066
 10
-251073.096
 20
150291.71
  0
LWPOLYLINE
  5
3A78
330
44B0
100
AcDbEntity
  8
Måleblad fuld 0_35
  6
Continuous
 62
     7
370
    13
100
AcDbPolyline
 90
        2
 70
   128
 43
0.0
 10
-251138.687
 20
150225.726
 10
-251154.391
 20
150207.81
  0
LWPOLYLINE
  5
3A7B
330
44B0
100
AcDbEntity
  8
Måleblad fuld 0_35
  6
Continuous
 62
     7
370
    13
100
AcDbPolyline
 90
        2
 70
   128
 43
0.0
 10
-251304.134
 20
150523.205
 10
-251298.323
 20
150528.599
  0
LWPOLYLINE
  5
3A7C
330
44B0
100
AcDbEntity
  8
Måleblad fuld 0_35
  6
Continuous
 62
     7
370
    13
100
AcDbPolyline
 90
        2
 70
   128
 43
0.0
 10
-251113.953
 20
150249.196
 10
-251138.687
 20
150225.726
  0
LWPOLYLINE
  5
3A7D
330
44B0
100
AcDbEntity
  8
Måleblad fuld 0_35
  6
Continuous
 62
     7
370
    13
100
AcDbPolyline
 90
        2
 70
   128
 43
0.0
 10
-251595.477
 20
150287.28
 10
-251616.223
 20
150276.24
  0
LWPOLYLINE
  5
3A7E
330
44B0
100
AcDbEntity
  8
Måleblad fuld 0_35
  6
Continuous
 62
     7
370
    13
100
AcDbPolyline
 90
        2
 70
   128
 43
0.0
 10
-251104.066
 20
150299.692
 10
-251137.355
 20
150266.363
  0
LWPOLYLINE
  5
3A80
330
44B0
100
AcDbEntity
  8
Måleblad fuld 0_35
  6
Continuous
 62
     7
370
    13
100
AcDbPolyline
 90
        2
 70
   128
 43
0.0
 10
-250922.849
 20
150445.697
 10
-250941.243
 20
150426.55
  0
LWPOLYLINE
  5
3A83
330
44B0
100
AcDbEntity
  8
Måleblad fuld 0_35
  6
Continuous
 62
     7
370
    13
100
AcDbPolyline
 90
        2
 70
   128
 43
0.0
 10
-250771.781
 20
150636.136
 10
-250790.681
 20
150619.225
  0
LWPOLYLINE
  5
3A86
330
44B0
100
AcDbEntity
  8
Måleblad fuld 0_35
  6
Continuous
 62
     7
370
    13
100
AcDbPolyline
 90
        2
 70
   128
 43
0.0
 10
-251254.507
 20
150100.843
 10
-251262.032
 20
150090.725
  0
LWPOLYLINE
  5
3A88
330
44B0
100
AcDbEntity
  8
Måleblad fuld 0_35
  6
Continuous
 62
     7
370
    13
100
AcDbPolyline
 90
        2
 70
   128
 43
0.0
 10
-250882.083
 20
150486.79
 10
-250897.266
 20
150469.35
  0
LWPOLYLINE
  5
3A8A
330
44B0
100
AcDbEntity
  8
Måleblad fuld 0_35
  6
Continuous
 62
     7
370
    13
100
AcDbPolyline
 90
        2
 70
   128
 43
0.0
 10
-251260.961
 20
150087.248
 10
-251262.032
 20
150090.725
  0
LWPOLYLINE
  5
3A8B
330
44B0
100
AcDbEntity
  8
Måleblad fuld 0_35
  6
Continuous
 62
     7
370
    13
100
AcDbPolyline
 90
        2
 70
   128
 43
0.0
 10
-250940.114
 20
150466.452
 10
-250962.162
 20
150445.704
  0
LWPOLYLINE
  5
3A98
330
44B0
100
AcDbEntity
  8
Måleblad fuld 0_35
  6
Continuous
 62
     7
370
    13
100
AcDbPolyline
 90
        2
 70
   128
 43
0.0
 10
-251303.985
 20
150447.463
 10
-251290.893
 20
150448.724
  0
LWPOLYLINE
  5
3A9A
330
44B0
100
AcDbEntity
  8
Måleblad fuld 0_35
  6
Continuous
 62
     7
370
    13
100
AcDbPolyline
 90
        2
 70
   128
 43
0.0
 10
-251085.073
 20
150278.446
 10
-251094.757
 20
150267.725
  0
LWPOLYLINE
  5
3A9B
330
44B0
100
AcDbEntity
  8
Måleblad fuld 0_35
  6
Continuous
 62
     7
370
    13
100
AcDbPolyline
 90
        2
 70
   128
 43
0.0
 10
-251307.438
 20
150518.865
 10
-251290.893
 20
150448.724
  0
LWPOLYLINE
  5
3A9C
330
44B0
100
AcDbEntity
  8
Måleblad fuld 0_35
  6
Continuous
 62
     7
370
    13
100
AcDbPolyline
 90
        2
 70
   128
 43
0.0
 10
-251244.289
 20
150059.277
 10
-251284.291
 20
150075.575
  0
LWPOLYLINE
  5
3A9D
330
44B0
100
AcDbEntity
  8
Måleblad fuld 0_35
  6
Continuous
 62
     7
370
    13
100
AcDbPolyline
 90
        2
 70
   128
 43
0.0
 10
-251262.032
 20
150090.725
 10
-251284.291
 20
150075.575
  0
LWPOLYLINE
  5
3A9F
330
44B0
100
AcDbEntity
  8
Måleblad fuld 0_35
  6
Continuous
 62
     7
370
    13
100
AcDbPolyline
 90
        2
 70
   128
 43
0.0
 10
-250768.527
 20
150602.887
 10
-250752.511
 20
150617.49
  0
LWPOLYLINE
  5
3AA0
330
44B0
100
AcDbEntity
  8
Måleblad fuld 0_35
  6
Continuous
 62
     7
370
    13
100
AcDbPolyline
 90
        2
 70
   128
 43
0.0
 10
-250768.527
 20
150602.887
 10
-250530.447
 20
150631.906
  0
LWPOLYLINE
  5
3AA5
330
44B0
100
AcDbEntity
  8
Måleblad fuld 0_35
  6
Continuous
 62
     7
370
    13
100
AcDbPolyline
 90
        2
 70
   128
 43
0.0
 10
-250941.243
 20
150426.55
 10
-250971.75
 20
150396.657
  0
LWPOLYLINE
  5
3AA8
330
44B0
100
AcDbEntity
  8
Måleblad fuld 0_35
  6
Continuous
 62
     7
370
    13
100
AcDbPolyline
 90
        2
 70
   128
 43
0.0
 10
-251284.291
 20
150075.575
 10
-251286.058
 20
150074.484
  0
LWPOLYLINE
  5
3AA9
330
44B0
100
AcDbEntity
  8
Måleblad fuld 0_35
  6
Continuous
 62
     7
370
    13
100
AcDbPolyline
 90
        2
 70
   128
 43
0.0
 10
-251416.718
 20
150481.963
 10
-251397.602
 20
150443.186
  0
LWPOLYLINE
  5
3AAE
330
44B0
100
AcDbEntity
  8
Måleblad fuld 0_35
  6
Continuous
 62
     7
370
    13
100
AcDbPolyline
 90
        2
 70
   128
 43
0.0
 10
-251228.855
 20
150175.25
 10
-251244.845
 20
150158.866
  0
LWPOLYLINE
  5
3AAF
330
44B0
100
AcDbEntity
  8
Måleblad fuld 0_35
  6
Continuous
 62
     7
370
    13
100
AcDbPolyline
 90
        2
 70
   128
 43
0.0
 10
-251137.355
 20
150266.363
 10
-251140.787
 20
150262.733
  0
LWPOLYLINE
  5
3AB0
330
44B0
100
AcDbEntity
  8
Måleblad fuld 0_35
  6
Continuous
 62
     7
370
    13
100
AcDbPolyline
 90
        2
 70
   128
 43
0.0
 10
-251019.765
 20
150346.147
 10
-251007.44
 20
150359.163
  0
LWPOLYLINE
  5
3AB1
330
44B0
100
AcDbEntity
  8
Måleblad fuld 0_35
  6
Continuous
 62
     7
370
    13
100
AcDbPolyline
 90
        2
 70
   128
 43
0.0
 10
-251613.097
 20
150286.022
 10
-251602.917
 20
150292.077
  0
LWPOLYLINE
  5
3AB3
330
44B0
100
AcDbEntity
  8
Måleblad fuld 0_35
  6
Continuous
 62
     7
370
    13
100
AcDbPolyline
 90
        2
 70
   128
 43
0.0
 10
-250800.925
 20
150569.453
 10
-250768.527
 20
150602.887
  0
LWPOLYLINE
  5
3AB4
330
44B0
100
AcDbEntity
  8
Måleblad fuld 0_35
  6
Continuous
 62
     7
370
    13
100
AcDbPolyline
 90
        2
 70
   128
 43
0.0
 10
-251026.477
 20
150339.334
 10
-251019.765
 20
150346.147
  0
LWPOLYLINE
  5
3AB5
330
44B0
100
AcDbEntity
  8
Måleblad fuld 0_35
  6
Continuous
 62
     7
370
    13
100
AcDbPolyline
 90
        2
 70
   128
 43
0.0
 10
-250812.737
 20
150596.963
 10
-250837.936
 20
150570.855
  0
LWPOLYLINE
  5
3AB8
330
44B0
100
AcDbEntity
  8
Måleblad fuld 0_35
  6
Continuous
 62
     7
370
    13
100
AcDbPolyline
 90
        2
 70
   128
 43
0.0
 10
-250994.527
 20
150416.0
 10
-251015.601
 20
150390.942
  0
LWPOLYLINE
  5
3ABA
330
44B0
100
AcDbEntity
  8
Måleblad fuld 0_35
  6
Continuous
 62
     7
370
    13
100
AcDbPolyline
 90
        2
 70
   128
 43
0.0
 10
-251286.058
 20
150074.484
 10
-251313.304
 20
150047.076
  0
LWPOLYLINE
  5
3ABB
330
44B0
100
AcDbEntity
  8
Måleblad fuld 0_35
  6
Continuous
 62
     7
370
    13
100
AcDbPolyline
 90
        2
 70
   128
 43
0.0
 10
-251307.438
 20
150518.865
 10
-251304.134
 20
150523.205
  0
LWPOLYLINE
  5
3ABD
330
44B0
100
AcDbEntity
  8
Måleblad fuld 0_35
  6
Continuous
 62
     7
370
    13
100
AcDbPolyline
 90
        2
 70
   128
 43
0.0
 10
-251081.47
 20
150321.783
 10
-251104.066
 20
150299.692
  0
LWPOLYLINE
  5
3ABF
330
44B0
100
AcDbEntity
  8
Måleblad fuld 0_35
  6
Continuous
 62
     7
370
    13
100
AcDbPolyline
 90
        2
 70
   128
 43
0.0
 10
-251140.787
 20
150262.733
 10
-251162.367
 20
150239.907
  0
LWPOLYLINE
  5
3AC0
330
44B0
100
AcDbEntity
  8
Måleblad fuld 0_35
  6
Continuous
 62
     7
370
    13
100
AcDbPolyline
 90
        2
 70
   128
 43
0.0
 10
-251540.375
 20
150293.326
 10
-251534.785
 20
150275.233
  0
LWPOLYLINE
  5
3AC2
330
44B0
100
AcDbEntity
  8
Måleblad fuld 0_35
  6
Continuous
 62
     7
370
    13
100
AcDbPolyline
 90
        2
 70
   128
 43
0.0
 10
-251190.134
 20
150170.676
 10
-251217.126
 20
150141.683
  0
LWPOLYLINE
  5
3AC4
330
44B0
100
AcDbEntity
  8
Måleblad fuld 0_35
  6
Continuous
 62
     7
370
    13
100
AcDbPolyline
 90
        2
 70
   128
 43
0.0
 10
-251042.433
 20
150323.127
 10
-251026.477
 20
150339.334
  0
LWPOLYLINE
  5
3AC6
330
44B0
100
AcDbEntity
  8
Måleblad fuld 0_35
  6
Continuous
 62
     7
370
    13
100
AcDbPolyline
 90
        2
 70
   128
 43
0.0
 10
-250968.02
 20
150282.21
 10
-251026.477
 20
150339.334
  0
LWPOLYLINE
  5
3AC7
330
44B0
100
AcDbEntity
  8
Måleblad fuld 0_35
  6
Continuous
 62
     7
370
    13
100
AcDbPolyline
 90
        2
 70
   128
 43
0.0
 10
-250989.127
 20
150576.657
 10
-250812.737
 20
150596.963
  0
LWPOLYLINE
  5
3AC8
330
44B0
100
AcDbEntity
  8
Måleblad fuld 0_35
  6
Continuous
 62
     7
370
    13
100
AcDbPolyline
 90
        2
 70
   128
 43
0.0
 10
-250852.444
 20
150517.883
 10
-250877.428
 20
150492.136
  0
LWPOLYLINE
  5
3ACB
330
44B0
100
AcDbEntity
  8
Måleblad fuld 0_35
  6
Continuous
 62
     7
370
    13
100
AcDbPolyline
 90
        2
 70
   128
 43
0.0
 10
-251576.797
 20
150308.742
 10
-251564.097
 20
150315.803
  0
LWPOLYLINE
  5
3ACC
330
44B0
100
AcDbEntity
  8
Måleblad fuld 0_35
  6
Continuous
 62
     7
370
    13
100
AcDbPolyline
 90
        2
 70
   128
 43
0.0
 10
-250790.681
 20
150619.225
 10
-250812.737
 20
150596.963
  0
LWPOLYLINE
  5
3ACD
330
44B0
100
AcDbEntity
  8
Måleblad fuld 0_35
  6
Continuous
 62
     7
370
    13
100
AcDbPolyline
 90
        2
 70
   128
 43
0.0
 10
-251581.15
 20
150358.01
 10
-251564.097
 20
150315.803
  0
LWPOLYLINE
  5
3AE2
330
44B0
100
AcDbEntity
  8
Måleblad fuld 0_35
  6
Continuous
 62
     7
370
    13
100
AcDbPolyline
 90
        2
 70
   128
 43
0.0
 10
-251179.096
 20
150550.223
 10
-250989.127
 20
150576.657
  0
LWPOLYLINE
  5
3AE3
330
44B0
100
AcDbEntity
  8
Måleblad fuld 0_35
  6
Continuous
 62
     7
370
    13
100
AcDbPolyline
 90
        2
 70
   128
 43
0.0
 10
-251274.504
 20
150533.526
 10
-251179.096
 20
150550.223
  0
LWPOLYLINE
  5
3AE4
330
44B0
100
AcDbEntity
  8
Måleblad fuld 0_35
  6
Continuous
 62
     7
370
    13
100
AcDbPolyline
 90
        2
 70
   128
 43
0.0
 10
-251437.168
 20
150280.371
 10
-251485.533
 20
150355.465
  0
LWPOLYLINE
  5
3AE5
330
44B0
100
AcDbEntity
  8
Måleblad fuld 0_35
  6
Continuous
 62
     7
370
    13
100
AcDbPolyline
 90
        2
 70
   128
 43
0.0
 10
-251368.761
 20
150412.006
 10
-251309.078
 20
150441.923
  0
LWPOLYLINE
  5
3AE6
330
44B0
100
AcDbEntity
  8
Måleblad fuld 0_35
  6
Continuous
 62
     7
370
    13
100
AcDbPolyline
 90
        2
 70
   128
 43
0.0
 10
-251137.902
 20
150487.391
 10
-251139.958753
 20
150490.528105
  0
LWPOLYLINE
  5
3AE7
330
44B0
100
AcDbEntity
  8
Måleblad fuld 0_35
  6
Continuous
 62
     7
370
    13
100
AcDbPolyline
 90
        2
 70
   128
 43
0.0
 10
-251485.533
 20
150355.465
 10
-251503.777
 20
150346.664
  0
LWPOLYLINE
  5
3AE8
330
44B0
100
AcDbEntity
  8
Måleblad fuld 0_35
  6
Continuous
 62
     7
370
    13
100
AcDbPolyline
 90
        2
 70
   128
 43
0.0
 10
-251436.228
 20
150379.251
 10
-251485.533
 20
150355.465
  0
LWPOLYLINE
  5
3AE9
330
44B0
100
AcDbEntity
  8
Måleblad fuld 0_35
  6
Continuous
 62
     7
370
    13
100
AcDbPolyline
 90
        2
 70
   128
 43
0.0
 10
-251368.761
 20
150412.006
 10
-251436.228
 20
150379.251
  0
LWPOLYLINE
  5
3AEA
330
44B0
100
AcDbEntity
  8
Måleblad fuld 0_35
  6
Continuous
 62
     7
370
    13
100
AcDbPolyline
 90
        2
 70
   128
 43
0.0
 10
-251303.541
 20
150445.577
 10
-251309.078
 20
150441.923
  0
LWPOLYLINE
  5
3AEB
330
44B0
100
AcDbEntity
  8
Måleblad fuld 0_35
  6
Continuous
 62
     7
370
    13
100
AcDbPolyline
 90
        2
 70
   128
 43
0.0
 10
-251303.985
 20
150447.463
 10
-251303.541
 20
150445.577
  0
LWPOLYLINE
  5
3AEC
330
44B0
100
AcDbEntity
  8
Måleblad fuld 0_35
  6
Continuous
 62
     7
370
    13
100
AcDbPolyline
 90
        2
 70
   128
 43
0.0
 10
-251437.168
 20
150280.371
 10
-251472.396
 20
150257.395
  0
LWPOLYLINE
  5
3AED
330
44B0
100
AcDbEntity
  8
Måleblad fuld 0_35
  6
Continuous
 62
     7
370
    13
100
AcDbPolyline
 90
        2
 70
   128
 43
0.0
 10
-251472.396
 20
150257.395
 10
-251526.315
 20
150211.325
  0
LWPOLYLINE
  5
3AEF
330
44B0
100
AcDbEntity
  8
Måleblad fuld 0_35
  6
Continuous
 62
     7
370
    13
100
AcDbPolyline
 90
        2
 70
   128
 43
0.0
 10
-251137.902
 20
150487.391
 10
-251240.512
 20
150416.41
  0
LWPOLYLINE
  5
3AF0
330
44B0
100
AcDbEntity
  8
Måleblad fuld 0_35
  6
Continuous
 62
     7
370
    13
100
AcDbPolyline
 90
        2
 70
   128
 43
0.0
 10
-251317.037
 20
150116.615
 10
-251280.366
 20
150125.078
  0
LWPOLYLINE
  5
3AF1
330
44B0
100
AcDbEntity
  8
Måleblad fuld 0_35
  6
Continuous
 62
     7
370
    13
100
AcDbPolyline
 90
        2
 70
   128
 43
0.0
 10
-251414.331
 20
150094.163
 10
-251317.037
 20
150116.615
  0
LWPOLYLINE
  5
3AF2
330
44B0
100
AcDbEntity
  8
Måleblad fuld 0_35
  6
Continuous
 62
     7
370
    13
100
AcDbPolyline
 90
        2
 70
   128
 43
0.0
 10
-251395.957
 20
150308.879
 10
-251432.195111
 20
150283.811031
  0
LWPOLYLINE
  5
3AF3
330
44B0
100
AcDbEntity
  8
Måleblad fuld 0_35
  6
Continuous
 62
     7
370
    13
100
AcDbPolyline
 90
        2
 70
   128
 43
0.0
 10
-251240.512
 20
150416.41
 10
-251312.231285
 20
150366.797298
  0
LWPOLYLINE
  5
3AF4
330
44B0
100
AcDbEntity
  8
Måleblad fuld 0_35
  6
Continuous
 62
     7
370
    13
100
AcDbPolyline
 90
        2
 70
   128
 43
0.0
 10
-251305.756
 20
150096.655
 10
-251313.036
 20
150088.486
  0
LWPOLYLINE
  5
3AF5
330
44B0
100
AcDbEntity
  8
Måleblad fuld 0_35
  6
Continuous
 62
     7
370
    13
100
AcDbPolyline
 90
        2
 70
   128
 43
0.0
 10
-251313.036
 20
150088.486
 10
-251317.474
 20
150083.409
  0
LWPOLYLINE
  5
3AF6
330
44B0
100
AcDbEntity
  8
Måleblad fuld 0_35
  6
Continuous
 62
     7
370
    13
100
AcDbPolyline
 90
        2
 70
   128
 43
0.0
 10
-251295.319
 20
150108.367
 10
-251305.756
 20
150096.655
  0
ARC
  5
3AFC
330
44B0
100
AcDbEntity
  8
Måleblad fuld 0_35
  6
Continuous
 62
     7
370
    13
100
AcDbCircle
 10
-250187.833399
 20
151141.634683
 30
0.0
 40
1278.307617127002
100
AcDbArc
 50
214.59786
 51
221.166585
  0
LWPOLYLINE
  5
3AFD
330
44B0
100
AcDbEntity
  8
Måleblad fuld 0_35
  6
Continuous
 62
     7
370
    13
100
AcDbPolyline
 90
        2
 70
   128
 43
0.0
 10
-251338.731
 20
150061.722
 10
-251339.516
 20
150062.492
  0
LWPOLYLINE
  5
3AFE
330
44B0
100
AcDbEntity
  8
Måleblad fuld 0_35
  6
Continuous
 62
     7
370
    13
100
AcDbPolyline
 90
        2
 70
   128
 43
0.0
 10
-251317.474
 20
150083.409
 10
-251338.731
 20
150061.722
  0
LWPOLYLINE
  5
3AFF
330
44B0
100
AcDbEntity
  8
Måleblad fuld 0_35
  6
Continuous
 62
     7
370
    13
100
AcDbPolyline
 90
        2
 70
   128
 43
0.0
 10
-251317.037
 20
150116.615
 10
-251306.978
 20
150106.757
  0
LWPOLYLINE
  5
3B00
330
44B0
100
AcDbEntity
  8
Måleblad fuld 0_35
  6
Continuous
 62
     7
370
    13
100
AcDbPolyline
 90
        2
 70
   128
 43
0.0
 10
-251339.516
 20
150062.492
 10
-251343.779
 20
150058.142
  0
LWPOLYLINE
  5
3B01
330
44B0
100
AcDbEntity
  8
Måleblad fuld 0_35
  6
Continuous
 62
     7
370
    13
100
AcDbPolyline
 90
        2
 70
   128
 43
0.0
 10
-251306.258
 20
150102.612
 10
-251304.919
 20
150103.979
  0
ARC
  5
3B02
330
44B0
100
AcDbEntity
  8
Måleblad fuld 0_35
  6
Continuous
 62
     7
370
    13
100
AcDbCircle
 10
-251314.619425
 20
150098.941277
 30
0.0
 40
10.93054895083352
100
AcDbArc
 50
27.444209
 51
45.646049
  0
ARC
  5
3B03
330
44B0
100
AcDbEntity
  8
Måleblad fuld 0_35
  6
Continuous
 62
     7
370
    13
100
AcDbCircle
 10
-251314.66427
 20
150098.903947
 30
0.0
 40
9.187765559490944
100
AcDbArc
 50
345.83139
 51
23.802548
  0
LWPOLYLINE
  5
3B04
330
44B0
100
AcDbEntity
  8
Måleblad fuld 0_35
  6
Continuous
 62
     7
370
    13
100
AcDbPolyline
 90
        2
 70
   128
 43
0.0
 10
-251010.484
 20
150450.705
 10
-251009.059
 20
150452.183
  0
ARC
  5
3B05
330
44B0
100
AcDbEntity
  8
Måleblad fuld 0_35
  6
Continuous
 62
     7
370
    13
100
AcDbCircle
 10
-251105.723212
 20
150432.21723
 30
0.0
 40
60.02448425249397
100
AcDbArc
 50
315.735717
 51
342.401369
  0
ARC
  5
3B06
330
44B0
100
AcDbEntity
  8
Måleblad fuld 0_35
  6
Continuous
 62
     7
370
    13
100
AcDbCircle
 10
251019.56427
 20
150404.845736
 30
0.0
 40
30.37775688280733
210
0.0
220
0.0
230
-1.0
100
AcDbArc
 50
17.675099
 51
54.608173
  0
LWPOLYLINE
  5
3B07
330
44B0
100
AcDbEntity
  8
Måleblad fuld 0_35
  6
Continuous
 62
     7
370
    13
100
AcDbPolyline
 90
        2
 70
   128
 43
0.0
 10
-251037.158
 20
150429.61
 10
-251010.484
 20
150450.705
  0
LWPOLYLINE
  5
3B08
330
44B0
100
AcDbEntity
  8
Måleblad fuld 0_35
  6
Continuous
 62
     7
370
    13
100
AcDbPolyline
 90
        2
 70
   128
 43
0.0
 10
-251150.142
 20
150300.188
 10
-251062.738
 20
150390.322
  0
LWPOLYLINE
  5
3B09
330
44B0
100
AcDbEntity
  8
Måleblad fuld 0_35
  6
Continuous
 62
     7
370
    13
100
AcDbPolyline
 90
        2
 70
   128
 43
0.0
 10
-251316.231
 20
150298.476
 10
-251261.068
 20
150206.343
  0
ARC
  5
3B0A
330
44B0
100
AcDbEntity
  8
Måleblad fuld 0_35
  6
Continuous
 62
     7
370
    13
100
AcDbCircle
 10
-251183.4895
 20
150273.557864
 30
0.0
 40
204.2643848346872
100
AcDbArc
 50
190.297132
 51
209.219767
  0
LWPOLYLINE
  5
3B0B
330
44B0
100
AcDbEntity
  8
Måleblad fuld 0_35
  6
Continuous
 62
     7
370
    13
100
AcDbPolyline
 90
        2
 70
   128
 43
0.0
 10
-251240.082
 20
150415.795
 10
-251240.512
 20
150416.41
  0
ARC
  5
3B0C
330
44B0
100
AcDbEntity
  8
Måleblad fuld 0_35
  6
Continuous
 62
     7
370
    13
100
AcDbCircle
 10
249461.38638
 20
151726.588696
 30
0.0
 40
2222.902119088951
210
0.0
220
0.0
230
-1.0
100
AcDbArc
 50
320.092711
 51
322.068706
  0
LWPOLYLINE
  5
3B0D
330
44B0
100
AcDbEntity
  8
Måleblad fuld 0_35
  6
Continuous
 62
     7
370
    13
100
AcDbPolyline
 90
        2
 70
   128
 43
0.0
 10
-251261.068
 20
150206.343
 10
-251166.538
 20
150300.492
  0
ARC
  5
3B0E
330
44B0
100
AcDbEntity
  8
Måleblad fuld 0_35
  6
Continuous
 62
     7
370
    13
100
AcDbCircle
 10
251306.082975
 20
150322.219494
 30
0.0
 40
17.68441003824382
210
0.0
220
0.0
230
-1.0
100
AcDbArc
 50
353.038169
 51
54.218399
  0
ARC
  5
3B0F
330
44B0
100
AcDbEntity
  8
Måleblad fuld 0_35
  6
Continuous
 62
     7
370
    13
100
AcDbCircle
 10
-251490.232389
 20
150010.945692
 30
0.0
 40
199.5381225716725
100
AcDbArc
 50
38.806986
 51
40.591696
  0
ARC
  5
3B10
330
44B0
100
AcDbEntity
  8
Måleblad fuld 0_35
  6
Continuous
 62
     7
370
    13
100
AcDbCircle
 10
-250944.754114
 20
150353.000683
 30
0.0
 40
453.355012467884
100
AcDbArc
 50
185.585014
 51
190.300231
  0
ARC
  5
3B11
330
44B0
100
AcDbEntity
  8
Måleblad fuld 0_35
  6
Continuous
 62
     7
370
    13
100
AcDbCircle
 10
-251183.326796
 20
150273.668733
 30
0.0
 40
204.4599889742572
100
AcDbArc
 50
214.538882
 51
220.538556
  0
ARC
  5
3B12
330
44B0
100
AcDbEntity
  8
Måleblad fuld 0_35
  6
Continuous
 62
     7
370
    13
100
AcDbCircle
 10
-251183.861201
 20
150273.342907
 30
0.0
 40
203.8350477591543
100
AcDbArc
 50
209.218037
 51
214.548605
  0
LWPOLYLINE
  5
3B13
330
44B0
100
AcDbEntity
  8
Måleblad fuld 0_35
  6
Continuous
 62
     7
370
    13
100
AcDbPolyline
 90
        2
 70
   128
 43
0.0
 10
-251287.22
 20
150357.623
 10
-251279.691
 20
150350.474
  0
ARC
  5
3B14
330
44B0
100
AcDbEntity
  8
Måleblad fuld 0_35
  6
Continuous
 62
     7
370
    13
100
AcDbCircle
 10
251253.307818
 20
150378.262184
 30
0.0
 40
38.31782109473858
210
0.0
220
0.0
230
-1.0
100
AcDbArc
 50
231.215874
 51
313.514296
  0
LWPOLYLINE
  5
3B15
330
44B0
100
AcDbEntity
  8
Måleblad fuld 0_35
  6
Continuous
 62
     7
370
    13
100
AcDbPolyline
 90
        2
 70
   128
 43
0.0
 10
-251316.423
 20
150336.566
 10
-251287.22
 20
150357.623
  0
ARC
  5
3B16
330
44B0
100
AcDbEntity
  8
Måleblad fuld 0_35
  6
Continuous
 62
     7
370
    13
100
AcDbCircle
 10
-251172.156525
 20
150266.808997
 30
0.0
 40
208.675409821772
100
AcDbArc
 50
218.819799
 51
225.580036
  0
LWPOLYLINE
  5
3B17
330
44B0
100
AcDbEntity
  8
Måleblad fuld 0_35
  6
Continuous
 62
     7
370
    13
100
AcDbPolyline
 90
        2
 70
   128
 43
0.0
 10
-251390.803
 20
150271.938
 10
-251384.464
 20
150237.045
  0
LWPOLYLINE
  5
3B18
330
44B0
100
AcDbEntity
  8
Måleblad fuld 0_35
  6
Continuous
 62
     7
370
    13
100
AcDbPolyline
 90
        2
 70
   128
 43
0.0
 10
-251318.211
 20
150117.767
 10
-251317.037
 20
150116.615
  0
LWPOLYLINE
  5
3B19
330
44B0
100
AcDbEntity
  8
Måleblad fuld 0_35
  6
Continuous
 62
     7
370
    13
100
AcDbPolyline
 90
        2
 70
   128
 43
0.0
 10
-251214.697
 20
150360.135
 10
-251229.306
 20
150348.393
  0
ARC
  5
3B1C
330
44B0
100
AcDbEntity
  8
Måleblad fuld 0_35
  6
Continuous
 62
     7
370
    13
100
AcDbCircle
 10
251269.056241
 20
150326.720476
 30
0.0
 40
54.98371003230476
210
0.0
220
0.0
230
-1.0
100
AcDbArc
 50
329.090196
 51
353.059159
  0
LWPOLYLINE
  5
3B1D
330
44B0
100
AcDbEntity
  8
Måleblad fuld 0_35
  6
Continuous
 62
     7
370
    13
100
AcDbPolyline
 90
        2
 70
   128
 43
0.0
 10
-251009.059
 20
150452.183
 10
-251072.616
 20
150532.555
  0
LWPOLYLINE
  5
3B1F
330
44B0
100
AcDbEntity
  8
Måleblad fuld 0_35
  6
Continuous
 62
     7
370
    13
100
AcDbPolyline
 90
        2
 70
   128
 43
0.0
 10
-251137.902
 20
150487.391
 10
-251072.616
 20
150532.555
  0
TEXT
  5
3D5C
330
44B0
100
AcDbEntity
  8
Kosmetikmatrikelnummer + 1 2000
100
AcDbText
 10
-251361.709446
 20
150447.319587
 30
0.0
 40
8.0
  1
7a
 50
30.0
  7
Style-MatrikArial
 72
     1
 11
-251352.43627
 21
150457.29226
 31
0.0
100
AcDbText
 73
     2
  0
TEXT
  5
3D61
330
44B0
100
AcDbEntity
  8
Kosmetikmatrikelnummer + 1 2000
100
AcDbText
 10
-251387.411057
 20
150047.565771
 30
0.0
 40
8.0
  1
10x
 50
30.0
  7
Style-MatrikArial
 72
     1
 11
-251372.615113
 21
150060.727015
 31
0.0
100
AcDbText
 73
     2
  0
TEXT
  5
3D62
330
44B0
100
AcDbEntity
  8
Kosmetikmatrikelnummer + 1 2000
100
AcDbText
 10
-251434.323023
 20
150433.136466
 30
0.0
 40
8.0
  1
2a
 50
30.0
  7
Style-MatrikArial
 72
     1
 11
-251425.049846
 21
150443.109139
 31
0.0
100
AcDbText
 73
     2
  0
TEXT
  5
3D63
330
44B0
100
AcDbEntity
  8
Kosmetikmatrikelnummer + 1 2000
100
AcDbText
 10
-251614.371487
 20
150281.257545
 30
0.0
 40
8.0
  1
36a
 50
30.0
  7
Style-MatrikArial
 72
     1
 11
-251599.461722
 21
150294.484504
 31
0.0
100
AcDbText
 73
     2
  0
TEXT
  5
3D64
330
44B0
100
AcDbEntity
  8
Kosmetikmatrikelnummer + 1 2000
100
AcDbText
 10
-251475.196214
 20
150296.908738
 30
0.0
 40
8.0
  1
3a
 50
30.0
  7
Style-MatrikArial
 72
     1
 11
-251465.923038
 21
150306.881411
 31
0.0
100
AcDbText
 73
     2
  0
TEXT
  5
3D65
330
44B0
100
AcDbEntity
  8
Kosmetikmatrikelnummer + 1 2000
100
AcDbText
 10
-251316.85052
 20
150476.96406
 30
0.0
 40
8.0
  1
8k
 50
30.0
  7
Style-MatrikArial
 72
     1
 11
-251307.567446
 21
150486.942447
 31
0.0
100
AcDbText
 73
     2
  0
TEXT
  5
3D6A
330
44B0
100
AcDbEntity
  8
Kosmetikmatrikelnummer + 1 2000
100
AcDbText
 10
-251272.197691
 20
150360.573424
 30
0.0
 40
8.0
  1
3ag
 50
30.0
  7
Style-MatrikArial
 72
     1
 11
-251257.169157
 21
150373.868954
 31
0.0
100
AcDbText
 73
     2
  0
TEXT
  5
3D6B
330
44B0
100
AcDbEntity
  8
Kosmetikmatrikelnummer + 1 2000
100
AcDbText
 10
-251323.629498
 20
150101.021386
 30
0.0
 40
8.0
  1
10by
 50
30.0
  7
Style-MatrikArial
 72
     1
 11
-251303.033658
 21
150117.531202
 31
0.0
100
AcDbText
 73
     2
  0
TEXT
  5
3D6C
330
44B0
100
AcDbEntity
  8
Kosmetikmatrikelnummer + 1 2000
100
AcDbText
 10
-251433.093787
 20
150246.852241
 30
0.0
 40
8.0
  1
3ah
 50
30.0
  7
Style-MatrikArial
 72
     1
 11
-251418.184022
 21
150260.079199
 31
0.0
100
AcDbText
 73
     2
  0
TEXT
  5
3D6D
330
44B0
100
AcDbEntity
  8
Kosmetikmatrikelnummer + 1 2000
100
AcDbText
 10
-251251.647746
 20
150315.506505
 30
0.0
 40
8.0
  1
3ai
 50
30.0
  7
Style-MatrikArial
 72
     1
 11
-251239.63793
 21
150327.059178
 31
0.0
100
AcDbText
 73
     2
  0
TEXT
  5
3D6E
330
44B0
100
AcDbEntity
  8
Kosmetikmatrikelnummer + 1 2000
100
AcDbText
 10
-251176.948169
 20
150415.326993
 30
0.0
 40
8.0
  1
3ak
 50
30.0
  7
Style-MatrikArial
 72
     1
 11
-251162.028507
 21
150428.559666
 31
0.0
100
AcDbText
 73
     2
  0
ARC
  5
3D91
330
44B0
100
AcDbEntity
  8
Måleblad fuld 0_35
  6
Continuous
 62
     7
370
    13
100
AcDbCircle
 10
-251263.671302
 20
150459.972553
 30
0.0
 40
5.999839259431714
100
AcDbArc
 50
212.593661
 51
260.003431
  0
ARC
  5
3D92
330
44B0
100
AcDbEntity
  8
Måleblad fuld 0_35
  6
Continuous
 62
     7
370
    13
100
AcDbCircle
 10
-251241.459921
 20
150475.209667
 30
0.0
 40
5.749896733548943
100
AcDbArc
 50
304.982074
 51
351.797097
  0
ARC
  5
3D93
330
44B0
100
AcDbEntity
  8
Måleblad fuld 0_35
  6
Continuous
 62
     7
370
    13
100
AcDbCircle
 10
251287.350285
 20
150509.899221
 30
0.0
 40
11.02917895723531
210
0.0
220
0.0
230
-1.0
100
AcDbArc
 50
346.087807
 51
12.430502
  0
ARC
  5
3D94
330
44B0
100
AcDbEntity
  8
Måleblad fuld 0_35
  6
Continuous
 62
     7
370
    13
100
AcDbCircle
 10
-251234.125802
 20
150398.739453
 30
0.0
 40
130.0481709929048
100
AcDbArc
 50
99.571895
 51
102.0455
  0
ARC
  5
3D95
330
44B0
100
AcDbEntity
  8
Måleblad fuld 0_35
  6
Continuous
 62
     7
370
    13
100
AcDbCircle
 10
251235.536435
 20
150403.870305
 30
0.0
 40
124.7553445208993
210
0.0
220
0.0
230
-1.0
100
AcDbArc
 50
80.675103
 51
84.213804
  0
ARC
  5
3D96
330
44B0
100
AcDbEntity
  8
Måleblad fuld 0_35
  6
Continuous
 62
     7
370
    13
100
AcDbCircle
 10
-251242.782285
 20
150598.52014
 30
0.0
 40
70.0293089700018
100
AcDbArc
 50
272.140968
 51
279.548279
  0
ARC
  5
3D97
330
44B0
100
AcDbEntity
  8
Måleblad fuld 0_35
  6
Continuous
 62
     7
370
    13
100
AcDbCircle
 10
251200.531835
 20
150502.628163
 30
0.0
 40
4.749914928583775
210
0.0
220
0.0
230
-1.0
100
AcDbArc
 50
144.617899
 51
187.571203
  0
ARC
  5
3D98
330
44B0
100
AcDbEntity
  8
Måleblad fuld 0_35
  6
Continuous
 62
     7
370
    13
100
AcDbCircle
 10
-251190.398813
 20
150488.360251
 30
0.0
 40
4.749872242745387
100
AcDbArc
 50
35.382011
 51
77.675454
  0
ARC
  5
3D99
330
44B0
100
AcDbEntity
  8
Måleblad fuld 0_35
  6
Continuous
 62
     7
370
    13
100
AcDbCircle
 10
251225.483274
 20
150486.389088
 30
0.0
 40
5.749845329605756
210
0.0
220
0.0
230
-1.0
100
AcDbArc
 50
235.018017
 51
280.556588
  0
ARC
  5
3D9A
330
44B0
100
AcDbEntity
  8
Måleblad fuld 0_35
  6
Continuous
 62
     7
370
    13
100
AcDbCircle
 10
251233.033591
 20
150495.435244
 30
0.0
 40
4.749914659175472
210
0.0
220
0.0
230
-1.0
100
AcDbArc
 50
325.018225
 51
12.500171
  0
ARC
  5
3D9B
330
44B0
100
AcDbEntity
  8
Måleblad fuld 0_35
  6
Continuous
 62
     7
370
    13
100
AcDbCircle
 10
251247.425554
 20
150485.479528
 30
0.0
 40
4.749872173449479
210
0.0
220
0.0
230
-1.0
100
AcDbArc
 50
55.32611
 51
98.398677
  0
ARC
  5
3D9C
330
44B0
100
AcDbEntity
  8
Måleblad fuld 0_35
  6
Continuous
 62
     7
370
    13
100
AcDbCircle
 10
-251252.205196
 20
150443.586256
 30
0.0
 40
5.999892143664892
100
AcDbArc
 50
124.982073
 51
169.195177
  0
ARC
  5
3D9D
330
44B0
100
AcDbEntity
  8
Måleblad fuld 0_35
  6
Continuous
 62
     7
370
    13
100
AcDbCircle
 10
-251220.107743
 20
150286.438007
 30
0.0
 40
122.2472269455863
100
AcDbArc
 50
124.673895
 51
138.901835
  0
ARC
  5
3D9E
330
44B0
100
AcDbEntity
  8
Måleblad fuld 0_35
  6
Continuous
 62
     7
370
    13
100
AcDbCircle
 10
-251313.884299
 20
150392.380114
 30
0.0
 40
4.749914179600716
100
AcDbArc
 50
124.673978
 51
170.823266
  0
ARC
  5
3D9F
330
44B0
100
AcDbEntity
  8
Måleblad fuld 0_35
  6
Continuous
 62
     7
370
    13
100
AcDbCircle
 10
-251323.839893
 20
150406.771868
 30
0.0
 40
4.749871968462548
100
AcDbArc
 50
214.673586
 51
260.688586
  0
ARC
  5
3DA0
330
44B0
100
AcDbEntity
  8
Måleblad fuld 0_35
  6
Continuous
 62
     7
370
    13
100
AcDbCircle
 10
-251402.808233
 20
150364.2945
 30
0.0
 40
47.15044345298713
100
AcDbArc
 50
26.407212
 51
43.230913
  0
ARC
  5
3DA1
330
44B0
100
AcDbEntity
  8
Måleblad fuld 0_35
  6
Continuous
 62
     7
370
    13
100
AcDbCircle
 10
-251429.122021
 20
150353.111896
 30
0.0
 40
4.999868731083275
100
AcDbArc
 50
206.119937
 51
246.46497
  0
ARC
  5
3DA2
330
44B0
100
AcDbEntity
  8
Måleblad fuld 0_35
  6
Continuous
 62
     7
370
    13
100
AcDbCircle
 10
251422.535702
 20
150337.408152
 30
0.0
 40
3.999924157524383
210
0.0
220
0.0
230
-1.0
100
AcDbArc
 50
333.879913
 51
17.043023
  0
ARC
  5
3DA3
330
44B0
100
AcDbEntity
  8
Måleblad fuld 0_35
  6
Continuous
 62
     7
370
    13
100
AcDbCircle
 10
251406.053891
 20
150343.262317
 30
0.0
 40
5.999849549034168
210
0.0
220
0.0
230
-1.0
100
AcDbArc
 50
63.879859
 51
114.570234
  0
ARC
  5
3DA4
330
44B0
100
AcDbEntity
  8
Måleblad fuld 0_35
  6
Continuous
 62
     7
370
    13
100
AcDbCircle
 10
251411.099544
 20
150363.062666
 30
0.0
 40
5.999883961426444
210
0.0
220
0.0
230
-1.0
100
AcDbArc
 50
162.617348
 51
202.000544
  0
ARC
  5
3DA5
330
44B0
100
AcDbEntity
  8
Måleblad fuld 0_35
  6
Continuous
 62
     7
370
    13
100
AcDbCircle
 10
251592.180613
 20
150306.375693
 30
0.0
 40
195.7464688213006
210
0.0
220
0.0
230
-1.0
100
AcDbArc
 50
155.630681
 51
159.215286
  0
ARC
  5
3DA6
330
44B0
100
AcDbEntity
  8
Måleblad fuld 0_35
  6
Continuous
 62
     7
370
    13
100
AcDbCircle
 10
-251454.389204
 20
150305.096401
 30
0.0
 40
30.75105092363109
100
AcDbArc
 50
316.197421
 51
320.82291
  0
ARC
  5
3DA7
330
44B0
100
AcDbEntity
  8
Måleblad fuld 0_35
  6
Continuous
 62
     7
370
    13
100
AcDbCircle
 10
251402.144633
 20
150269.890391
 30
0.0
 40
32.24926307396591
210
0.0
220
0.0
230
-1.0
100
AcDbArc
 50
33.721689
 51
44.650136
  0
ARC
  5
3DA8
330
44B0
100
AcDbEntity
  8
Måleblad fuld 0_35
  6
Continuous
 62
     7
370
    13
100
AcDbCircle
 10
-251592.180835
 20
150306.375633
 30
0.0
 40
195.7466986515912
100
AcDbArc
 50
4.124675
 51
6.088486
  0
ARC
  5
3DA9
330
44B0
100
AcDbEntity
  8
Måleblad fuld 0_35
  6
Continuous
 62
     7
370
    13
100
AcDbCircle
 10
-251592.180835
 20
150306.375633
 30
0.0
 40
195.7466988477629
100
AcDbArc
 50
7.918583
 51
9.647409
  0
LINE
  5
3DAA
330
44B0
100
AcDbEntity
  8
Måleblad fuld 0_35
  6
Continuous
 62
     7
370
    13
100
AcDbLine
 10
-251444.108449
 20
150372.319129
 30
0.0
 11
-251434.051519
 21
150351.80855
 31
0.0
  0
LINE
  5
3DAB
330
44B0
100
AcDbEntity
  8
Måleblad fuld 0_35
  6
Continuous
 62
     7
370
    13
100
AcDbLine
 10
-251480.032029
 20
150354.704624
 30
0.0
 11
-251444.108449
 21
150372.319129
 31
0.0
  0
LINE
  5
3DAC
330
44B0
100
AcDbEntity
  8
Måleblad fuld 0_35
  6
Continuous
 62
     7
370
    13
100
AcDbLine
 10
-251420.335273
 20
150323.834988
 30
0.0
 11
-251426.127127
 21
150335.64717
 31
0.0
  0
LINE
  5
3DAD
330
44B0
100
AcDbEntity
  8
Måleblad fuld 0_35
  6
Continuous
 62
     7
370
    13
100
AcDbLine
 10
-251424.2967
 20
150340.99957
 30
0.0
 11
-251408.695353
 21
150348.649419
 31
0.0
  0
LINE
  5
3DAE
330
44B0
100
AcDbEntity
  8
Måleblad fuld 0_35
  6
Continuous
 62
     7
370
    13
100
AcDbLine
 10
-251426.920801
 20
150348.622651
 30
0.0
 11
-251408.458049
 21
150357.675541
 31
0.0
  0
LINE
  5
3DAF
330
44B0
100
AcDbEntity
  8
Måleblad fuld 0_35
  6
Continuous
 62
     7
370
    13
100
AcDbLine
 10
-251316.586553
 20
150396.286455
 30
0.0
 11
-251295.326911
 21
150410.992999
 31
0.0
  0
LINE
  5
3DB0
330
44B0
100
AcDbEntity
  8
Måleblad fuld 0_35
  6
Continuous
 62
     7
370
    13
100
AcDbLine
 10
-251272.432575
 20
150436.558304
 30
0.0
 11
-251304.017638
 21
150414.708489
 31
0.0
  0
LINE
  5
3DB1
330
44B0
100
AcDbEntity
  8
Måleblad fuld 0_35
  6
Continuous
 62
     7
370
    13
100
AcDbLine
 10
-251311.929099
 20
150367.142549
 30
0.0
 11
-251322.520837
 21
150382.453988
 31
0.0
  0
LINE
  5
3DB2
330
44B0
100
AcDbEntity
  8
Måleblad fuld 0_35
  6
Continuous
 62
     7
370
    13
100
AcDbLine
 10
-251295.326911
 20
150410.992999
 30
0.0
 11
-251267.735948
 21
150430.079291
 31
0.0
  0
LINE
  5
3DB3
330
44B0
100
AcDbEntity
  8
Måleblad fuld 0_35
  6
Continuous
 62
     7
370
    13
100
AcDbLine
 10
-251242.661778
 20
150419.48236
 30
0.0
 11
-251257.121114
 21
150440.146423
 31
0.0
  0
LINE
  5
3DB4
330
44B0
100
AcDbEntity
  8
Måleblad fuld 0_35
  6
Continuous
 62
     7
370
    13
100
AcDbLine
 10
-251215.042974
 20
150476.913016
 30
0.0
 11
-251193.122004
 21
150492.251975
 31
0.0
  0
LINE
  5
3DB5
330
44B0
100
AcDbEntity
  8
Måleblad fuld 0_35
  6
Continuous
 62
     7
370
    13
100
AcDbLine
 10
-251197.808613
 20
150498.736409
 30
0.0
 11
-251222.186779
 21
150481.678053
 31
0.0
  0
LINE
  5
3DB6
330
44B0
100
AcDbEntity
  8
Måleblad fuld 0_35
  6
Continuous
 62
     7
370
    13
100
AcDbLine
 10
-251230.194326
 20
150483.092618
 30
0.0
 11
-251236.92536
 21
150492.712043
 31
0.0
  0
LINE
  5
3DB7
330
44B0
100
AcDbEntity
  8
Måleblad fuld 0_35
  6
Continuous
 62
     7
370
    13
100
AcDbLine
 10
-251260.231481
 20
150455.05669
 30
0.0
 11
-251238.163389
 21
150470.498595
 31
0.0
  0
LINE
  5
3DB8
330
44B0
100
AcDbEntity
  8
Måleblad fuld 0_35
  6
Continuous
 62
     7
370
    13
100
AcDbLine
 10
-251236.748832
 20
150478.506173
 30
0.0
 11
-251243.533816
 21
150488.202698
 31
0.0
  0
LINE
  5
3DB9
330
44B0
100
AcDbEntity
  8
Måleblad fuld 0_35
  6
Continuous
 62
     7
370
    13
100
AcDbLine
 10
-251240.894386
 20
150505.500497
 30
0.0
 11
-251255.750871
 21
150526.977057
 31
0.0
  0
LINE
  5
3DBA
330
44B0
100
AcDbEntity
  8
Måleblad fuld 0_35
  6
Continuous
 62
     7
370
    13
100
AcDbLine
 10
-251223.004976
 20
150531.341556
 30
0.0
 11
-251216.469384
 21
150533.392147
 31
0.0
  0
LINE
  5
3DBB
330
44B0
100
AcDbEntity
  8
Måleblad fuld 0_35
  6
Continuous
 62
     7
370
    13
100
AcDbLine
 10
-251217.515694
 20
150535.337948
 30
0.0
 11
-251216.469384
 21
150533.392147
 31
0.0
  0
LINE
  5
3DBC
330
44B0
100
AcDbEntity
  8
Måleblad fuld 0_35
  6
Continuous
 62
     7
370
    13
100
AcDbLine
 10
-251216.469384
 20
150533.392147
 30
0.0
 11
-251206.623093
 21
150519.480593
 31
0.0
  0
LINE
  5
3DBD
330
44B0
100
AcDbEntity
  8
Måleblad fuld 0_35
  6
Continuous
 62
     7
370
    13
100
AcDbLine
 10
-251217.515694
 20
150535.337948
 30
0.0
 11
-251203.67766
 21
150540.412672
 31
0.0
  0
LINE
  5
3DBE
330
44B0
100
AcDbEntity
  8
Måleblad fuld 0_35
  6
Continuous
 62
     7
370
    13
100
AcDbLine
 10
-251444.108449
 20
150372.319129
 30
0.0
 11
-251413.874227
 21
150387.143958
 31
0.0
  0
ARC
  5
3DBF
330
44B0
100
AcDbEntity
  8
Måleblad fuld 0_35
  6
Continuous
 62
     7
370
    13
100
AcDbCircle
 10
-251264.464746
 20
150425.350131
 30
0.0
 40
5.750280305507146
100
AcDbArc
 50
34.435331
 51
80.612876
  0
LINE
  5
3DC0
330
44B0
100
AcDbEntity
  8
Måleblad fuld 0_35
  6
Continuous
 62
     7
370
    13
100
AcDbLine
 10
-251317.60371
 20
150434.348541
 30
0.0
 11
-251293.581391
 21
150446.127469
 31
0.0
  0
LINE
  5
3DC1
330
44B0
100
AcDbEntity
  8
Måleblad fuld 0_35
  6
Continuous
 62
     7
370
    13
100
AcDbLine
 10
-251293.581391
 20
150446.127469
 30
0.0
 11
-251276.616664
 21
150447.077429
 31
0.0
  0
LINE
  5
3DC2
330
44B0
100
AcDbEntity
  8
Måleblad fuld 0_35
  6
Continuous
 62
     7
370
    13
100
AcDbLine
 10
-251272.799743
 20
150447.291162
 30
0.0
 11
-251270.948415
 21
150444.645408
 31
0.0
  0
ARC
  5
3DC3
330
44B0
100
AcDbEntity
  8
Måleblad fuld 0_35
  6
Continuous
 62
     7
370
    13
100
AcDbCircle
 10
-251275.644478
 20
150441.327498
 30
0.0
 40
5.749916116346866
100
AcDbArc
 50
303.959034
 51
345.060014
  0
LINE
  5
3DC4
330
44B0
100
AcDbEntity
  8
Måleblad stip 0_15
  6
DGN Style 3
 62
     7
370
     0
100
AcDbLine
 10
-251355.544817
 20
150375.112364
 30
0.0
 11
-251353.62245
 21
150370.970531
 31
0.0
  0
LINE
  5
3DC5
330
44B0
100
AcDbEntity
  8
Måleblad stip 0_15
  6
DGN Style 3
 62
     7
370
     0
100
AcDbLine
 10
-251398.182868
 20
150307.339716
 30
0.0
 11
-251398.769849
 21
150311.43836
 31
0.0
  0
LINE
  5
3DC6
330
44B0
100
AcDbEntity
  8
Måleblad stip 0_15
  6
DGN Style 3
 62
     7
370
     0
100
AcDbLine
 10
-251395.956573
 20
150376.554358
 30
0.0
 11
-251407.941647
 21
150372.501962
 31
0.0
  0
ARC
  5
3DC7
330
44B0
100
AcDbEntity
  8
Måleblad stip 0_15
  6
DGN Style 3
 62
     7
370
     0
100
AcDbCircle
 10
-251593.218707
 20
150306.232349
 30
0.0
 40
209.4219055803043
100
AcDbArc
 50
2.973616
 51
19.620651
  0
LINE
  5
3DC8
330
44B0
100
AcDbEntity
  8
Måleblad stip 0_15
  6
DGN Style 3
 62
     7
370
     0
100
AcDbLine
 10
-251274.971109
 20
150447.169574
 30
0.0
 11
-251277.039498
 21
150450.313207
 31
0.0
  0
LINE
  5
3DC9
330
44B0
100
AcDbEntity
  8
Måleblad stip 0_15
  6
DGN Style 3
 62
     7
370
     0
100
AcDbLine
 10
-251270.094767
 20
150458.695027
 30
0.0
 11
-251276.230264
 21
150454.374004
 31
0.0
  0
ARC
  5
3DCA
330
44B0
100
AcDbEntity
  8
Måleblad stip 0_15
  6
DGN Style 3
 62
     7
370
     0
100
AcDbCircle
 10
-251274.474419
 20
150451.913069
 30
0.0
 40
3.023109559843671
100
AcDbArc
 50
124.804114
 51
214.73459
  0
ARC
  5
3DCB
330
44B0
100
AcDbEntity
  8
Måleblad fuld 0_35
  6
Continuous
 62
     7
370
    13
100
AcDbCircle
 10
251171.639229
 20
150452.497555
 30
0.0
 40
93.57098295056848
210
0.0
220
0.0
230
-1.0
100
AcDbArc
 50
69.977016
 51
76.937657
  0
ARC
  5
3DCC
330
44B0
100
AcDbEntity
  8
Måleblad fuld 0_35
  6
Continuous
 62
     7
370
    13
100
AcDbCircle
 10
-251483.312988
 20
150313.293732
 30
0.0
 40
141.9374822991923
100
AcDbArc
 50
19.169075
 51
21.602053
  0
ARC
  5
3DCD
330
44B0
100
AcDbEntity
  8
Måleblad fuld 0_35
  6
Continuous
 62
     7
370
    13
100
AcDbCircle
 10
-251330.470696
 20
150366.426554
 30
0.0
 40
19.87680387526291
100
AcDbArc
 50
199.169037
 51
220.263875
  0
LINE
  5
3EDC
330
44B0
100
AcDbEntity
  8
Måleblad fuld 0_35
  6
Continuous
 62
     7
370
    13
100
AcDbLine
 10
-251480.032029
 20
150354.704624
 30
0.0
 11
-251467.430275
 21
150335.441857
 31
0.0
  0
LINE
  5
3EDD
330
44B0
100
AcDbEntity
  8
Måleblad fuld 0_35
  6
Continuous
 62
     7
370
    13
100
AcDbLine
 10
-251467.430275
 20
150335.441857
 30
0.0
 11
-251441.234325
 21
150348.286586
 31
0.0
  0
LINE
  5
3EDE
330
44B0
100
AcDbEntity
  8
Måleblad fuld 0_35
  6
Continuous
 62
     7
370
    13
100
AcDbLine
 10
-251441.234325
 20
150348.286586
 30
0.0
 11
-251434.051519
 21
150351.80855
 31
0.0
  0
LINE
  5
3EDF
330
44B0
100
AcDbEntity
  8
Måleblad fuld 0_35
  6
Continuous
 62
     7
370
    13
100
AcDbLine
 10
-251434.051519
 20
150351.80855
 30
0.0
 11
-251433.611275
 21
150350.910696
 31
0.0
  0
LINE
  5
3EE0
330
44B0
100
AcDbEntity
  8
Måleblad fuld 0_35
  6
Continuous
 62
     7
370
    13
100
AcDbLine
 10
-251441.234325
 20
150348.286586
 30
0.0
 11
-251427.518079
 21
150320.313023
 31
0.0
  0
LINE
  5
3EE1
330
44B0
100
AcDbEntity
  8
Måleblad fuld 0_35
  6
Continuous
 62
     7
370
    13
100
AcDbLine
 10
-251427.518079
 20
150320.313023
 30
0.0
 11
-251450.243243
 21
150309.170134
 31
0.0
  0
LINE
  5
3EE2
330
44B0
100
AcDbEntity
  8
Måleblad fuld 0_35
  6
Continuous
 62
     7
370
    13
100
AcDbLine
 10
-251450.243243
 20
150309.170134
 30
0.0
 11
-251467.430275
 21
150335.441857
 31
0.0
  0
LINE
  5
3EE3
330
44B0
100
AcDbEntity
  8
Måleblad fuld 0_35
  6
Continuous
 62
     7
370
    13
100
AcDbLine
 10
-251420.491394
 20
150296.412294
 30
0.0
 11
-251410.334309
 21
150303.438545
 31
0.0
  0
LINE
  5
3EE4
330
44B0
100
AcDbEntity
  8
Måleblad fuld 0_35
  6
Continuous
 62
     7
370
    13
100
AcDbLine
 10
-251410.334309
 20
150303.438545
 30
0.0
 11
-251420.335273
 21
150323.834988
 31
0.0
  0
LINE
  5
3EE5
330
44B0
100
AcDbEntity
  8
Måleblad fuld 0_35
  6
Continuous
 62
     7
370
    13
100
AcDbLine
 10
-251420.335273
 20
150323.834988
 30
0.0
 11
-251427.518079
 21
150320.313023
 31
0.0
  0
LINE
  5
3EE6
330
44B0
100
AcDbEntity
  8
Måleblad fuld 0_35
  6
Continuous
 62
     7
370
    13
100
AcDbLine
 10
-251433.199119
 20
150283.116855
 30
0.0
 11
-251450.243243
 21
150309.170134
 31
0.0
  0
LINE
  5
3EE7
330
44B0
100
AcDbEntity
  8
Måleblad fuld 0_35
  6
Continuous
 62
     7
370
    13
100
AcDbLine
 10
-251396.94114
 20
150320.455105
 30
0.0
 11
-251396.363606
 21
150313.1029
 31
0.0
  0
LINE
  5
3EE8
330
44B0
100
AcDbEntity
  8
Måleblad fuld 0_35
  6
Continuous
 62
     7
370
    13
100
AcDbLine
 10
-251396.363606
 20
150313.1029
 30
0.0
 11
-251410.334309
 21
150303.438545
 31
0.0
  0
LINE
  5
3EE9
330
44B0
100
AcDbEntity
  8
Måleblad fuld 0_35
  6
Continuous
 62
     7
370
    13
100
AcDbLine
 10
-251353.62245
 20
150370.970531
 30
0.0
 11
-251327.214175
 21
150389.238686
 31
0.0
  0
LINE
  5
3EEA
330
44B0
100
AcDbEntity
  8
Måleblad fuld 0_35
  6
Continuous
 62
     7
370
    13
100
AcDbLine
 10
-251327.214175
 20
150389.238686
 30
0.0
 11
-251322.520837
 21
150382.453988
 31
0.0
  0
LINE
  5
3EEB
330
44B0
100
AcDbEntity
  8
Måleblad fuld 0_35
  6
Continuous
 62
     7
370
    13
100
AcDbLine
 10
-251322.520837
 20
150382.453988
 30
0.0
 11
-251315.941763
 21
150387.00512
 31
0.0
  0
LINE
  5
3EEC
330
44B0
100
AcDbEntity
  8
Måleblad fuld 0_35
  6
Continuous
 62
     7
370
    13
100
AcDbLine
 10
-251315.941763
 20
150387.00512
 30
0.0
 11
-251317.790654
 21
150389.677879
 31
0.0
  0
LINE
  5
3EED
330
44B0
100
AcDbEntity
  8
Måleblad fuld 0_35
  6
Continuous
 62
     7
370
    13
100
AcDbLine
 10
-251378.311162
 20
150404.581692
 30
0.0
 11
-251348.081371
 21
150419.404347
 31
0.0
  0
LINE
  5
3EEE
330
44B0
100
AcDbEntity
  8
Måleblad fuld 0_35
  6
Continuous
 62
     7
370
    13
100
AcDbLine
 10
-251348.081371
 20
150419.404347
 30
0.0
 11
-251336.174183
 21
150402.191291
 31
0.0
  0
LINE
  5
3EEF
330
44B0
100
AcDbEntity
  8
Måleblad fuld 0_35
  6
Continuous
 62
     7
370
    13
100
AcDbLine
 10
-251336.174183
 20
150402.191291
 30
0.0
 11
-251329.595109
 21
150406.742423
 31
0.0
  0
LINE
  5
3EF0
330
44B0
100
AcDbEntity
  8
Måleblad fuld 0_35
  6
Continuous
 62
     7
370
    13
100
AcDbLine
 10
-251329.595109
 20
150406.742423
 30
0.0
 11
-251327.746218
 21
150404.069663
 31
0.0
  0
LINE
  5
3EF1
330
44B0
100
AcDbEntity
  8
Måleblad fuld 0_35
  6
Continuous
 62
     7
370
    13
100
AcDbLine
 10
-251336.174183
 20
150402.191291
 30
0.0
 11
-251329.774177
 21
150392.93943
 31
0.0
  0
LINE
  5
3EF2
330
44B0
100
AcDbEntity
  8
Måleblad fuld 0_35
  6
Continuous
 62
     7
370
    13
100
AcDbLine
 10
-251329.774177
 20
150392.93943
 30
0.0
 11
-251355.544817
 21
150375.112364
 31
0.0
  0
LINE
  5
3EF3
330
44B0
100
AcDbEntity
  8
Måleblad fuld 0_35
  6
Continuous
 62
     7
370
    13
100
AcDbLine
 10
-251289.654786
 20
150386.974534
 30
0.0
 11
-251282.253682
 21
150392.094313
 31
0.0
  0
LINE
  5
3EF4
330
44B0
100
AcDbEntity
  8
Måleblad fuld 0_35
  6
Continuous
 62
     7
370
    13
100
AcDbLine
 10
-251282.253682
 20
150392.094313
 30
0.0
 11
-251295.326911
 21
150410.992999
 31
0.0
  0
LINE
  5
3EF5
330
44B0
100
AcDbEntity
  8
Måleblad fuld 0_35
  6
Continuous
 62
     7
370
    13
100
AcDbLine
 10
-251259.722116
 20
150428.601775
 30
0.0
 11
-251249.857744
 21
150414.504487
 31
0.0
  0
LINE
  5
3EF6
330
44B0
100
AcDbEntity
  8
Måleblad fuld 0_35
  6
Continuous
 62
     7
370
    13
100
AcDbLine
 10
-251249.857744
 20
150414.504487
 30
0.0
 11
-251282.253682
 21
150392.094313
 31
0.0
  0
LINE
  5
3EF7
330
44B0
100
AcDbEntity
  8
Måleblad fuld 0_35
  6
Continuous
 62
     7
370
    13
100
AcDbLine
 10
-251321.137669
 20
150402.865557
 30
0.0
 11
-251304.017638
 21
150414.708489
 31
0.0
  0
LINE
  5
3EF8
330
44B0
100
AcDbEntity
  8
Måleblad fuld 0_35
  6
Continuous
 62
     7
370
    13
100
AcDbLine
 10
-251304.017638
 20
150414.708489
 30
0.0
 11
-251317.60371
 21
150434.348541
 31
0.0
  0
LINE
  5
3EF9
330
44B0
100
AcDbEntity
  8
Måleblad fuld 0_35
  6
Continuous
 62
     7
370
    13
100
AcDbLine
 10
-251317.60371
 20
150434.348541
 30
0.0
 11
-251348.081371
 21
150419.404347
 31
0.0
  0
LINE
  5
3EFA
330
44B0
100
AcDbEntity
  8
Måleblad fuld 0_35
  6
Continuous
 62
     7
370
    13
100
AcDbLine
 10
-251276.616664
 20
150447.077429
 30
0.0
 11
-251272.799743
 21
150447.291162
 31
0.0
  0
LINE
  5
3EFB
330
44B0
100
AcDbEntity
  8
Måleblad fuld 0_35
  6
Continuous
 62
     7
370
    13
100
AcDbLine
 10
-251255.645054
 20
150448.502156
 30
0.0
 11
-251237.574417
 21
150461.146886
 31
0.0
  0
LINE
  5
3EFC
330
44B0
100
AcDbEntity
  8
Måleblad fuld 0_35
  6
Continuous
 62
     7
370
    13
100
AcDbLine
 10
-251237.574417
 20
150461.146886
 30
0.0
 11
-251219.449962
 21
150435.539338
 31
0.0
  0
LINE
  5
3EFD
330
44B0
100
AcDbEntity
  8
Måleblad fuld 0_35
  6
Continuous
 62
     7
370
    13
100
AcDbLine
 10
-251219.449962
 20
150435.539338
 30
0.0
 11
-251242.661778
 21
150419.48236
 31
0.0
  0
LINE
  5
3EFE
330
44B0
100
AcDbEntity
  8
Måleblad fuld 0_35
  6
Continuous
 62
     7
370
    13
100
AcDbLine
 10
-251219.449962
 20
150435.539338
 30
0.0
 11
-251196.833085
 21
150451.184762
 31
0.0
  0
LINE
  5
3EFF
330
44B0
100
AcDbEntity
  8
Måleblad fuld 0_35
  6
Continuous
 62
     7
370
    13
100
AcDbLine
 10
-251196.833085
 20
150451.184762
 30
0.0
 11
-251215.042974
 21
150476.913016
 31
0.0
  0
LINE
  5
3F00
330
44B0
100
AcDbEntity
  8
Måleblad fuld 0_35
  6
Continuous
 62
     7
370
    13
100
AcDbLine
 10
-251215.042974
 20
150476.913016
 30
0.0
 11
-251237.574417
 21
150461.146886
 31
0.0
  0
LINE
  5
3F01
330
44B0
100
AcDbEntity
  8
Måleblad fuld 0_35
  6
Continuous
 62
     7
370
    13
100
AcDbLine
 10
-251186.526196
 20
150491.110547
 30
0.0
 11
-251184.119897
 21
150487.722314
 31
0.0
  0
LINE
  5
3F02
330
44B0
100
AcDbEntity
  8
Måleblad fuld 0_35
  6
Continuous
 62
     7
370
    13
100
AcDbLine
 10
-251184.119897
 20
150487.722314
 30
0.0
 11
-251170.926482
 21
150469.105886
 31
0.0
  0
LINE
  5
3F03
330
44B0
100
AcDbEntity
  8
Måleblad fuld 0_35
  6
Continuous
 62
     7
370
    13
100
AcDbLine
 10
-251170.926482
 20
150469.105886
 30
0.0
 11
-251196.833085
 21
150451.184762
 31
0.0
  0
LINE
  5
3F04
330
44B0
100
AcDbEntity
  8
Måleblad fuld 0_35
  6
Continuous
 62
     7
370
    13
100
AcDbLine
 10
-251184.119897
 20
150487.722314
 30
0.0
 11
-251177.59021
 21
150492.344043
 31
0.0
  0
LINE
  5
3F05
330
44B0
100
AcDbEntity
  8
Måleblad fuld 0_35
  6
Continuous
 62
     7
370
    13
100
AcDbLine
 10
-251177.59021
 20
150492.344043
 30
0.0
 11
-251194.381507
 21
150515.987333
 31
0.0
  0
LINE
  5
3F06
330
44B0
100
AcDbEntity
  8
Måleblad fuld 0_35
  6
Continuous
 62
     7
370
    13
100
AcDbLine
 10
-251194.381507
 20
150515.987333
 30
0.0
 11
-251200.911253
 21
150511.365687
 31
0.0
  0
LINE
  5
3F07
330
44B0
100
AcDbEntity
  8
Måleblad fuld 0_35
  6
Continuous
 62
     7
370
    13
100
AcDbLine
 10
-251200.911253
 20
150511.365687
 30
0.0
 11
-251196.659188
 21
150505.37849
 31
0.0
  0
LINE
  5
3F08
330
44B0
100
AcDbEntity
  8
Måleblad fuld 0_35
  6
Continuous
 62
     7
370
    13
100
AcDbLine
 10
-251177.59021
 20
150492.344043
 30
0.0
 11
-251152.893126
 21
150510.256527
 31
0.0
  0
LINE
  5
3F09
330
44B0
100
AcDbEntity
  8
Måleblad fuld 0_35
  6
Continuous
 62
     7
370
    13
100
AcDbLine
 10
-251139.958744
 20
150490.528092
 30
0.0
 11
-251170.926482
 21
150469.105886
 31
0.0
  0
LINE
  5
3F0A
330
44B0
100
AcDbEntity
  8
Måleblad fuld 0_35
  6
Continuous
 62
     7
370
    13
100
AcDbLine
 10
-251182.239739
 20
150545.466141
 30
0.0
 11
-251176.343128
 21
150546.024218
 31
0.0
  0
LINE
  5
3F0B
330
44B0
100
AcDbEntity
  8
Måleblad fuld 0_35
  6
Continuous
 62
     7
370
    13
100
AcDbLine
 10
-251168.450988
 20
150533.986475
 30
0.0
 11
-251194.381507
 21
150515.987333
 31
0.0
  0
LINE
  5
3F0C
330
44B0
100
AcDbEntity
  8
Måleblad fuld 0_35
  6
Continuous
 62
     7
370
    13
100
AcDbLine
 10
-251235.735847
 20
150499.341586
 30
0.0
 11
-251230.996077
 21
150502.620364
 31
0.0
  0
LINE
  5
3F0D
330
44B0
100
AcDbEntity
  8
Måleblad fuld 0_35
  6
Continuous
 62
     7
370
    13
100
AcDbLine
 10
-251230.996077
 20
150502.620364
 30
0.0
 11
-251206.623093
 21
150519.480593
 31
0.0
  0
LINE
  5
3F0E
330
44B0
100
AcDbEntity
  8
Måleblad fuld 0_35
  6
Continuous
 62
     7
370
    13
100
AcDbLine
 10
-251206.623093
 20
150519.480593
 30
0.0
 11
-251200.911253
 21
150511.365687
 31
0.0
  0
LINE
  5
3F0F
330
44B0
100
AcDbEntity
  8
Måleblad fuld 0_35
  6
Continuous
 62
     7
370
    13
100
AcDbLine
 10
-251263.921144
 20
150489.571532
 30
0.0
 11
-251240.894386
 21
150505.500497
 31
0.0
  0
LINE
  5
3F10
330
44B0
100
AcDbEntity
  8
Måleblad fuld 0_35
  6
Continuous
 62
     7
370
    13
100
AcDbLine
 10
-251240.894386
 20
150505.500497
 30
0.0
 11
-251235.547193
 21
150509.199466
 31
0.0
  0
LINE
  5
3F11
330
44B0
100
AcDbEntity
  8
Måleblad fuld 0_35
  6
Continuous
 62
     7
370
    13
100
AcDbLine
 10
-251235.547193
 20
150509.199466
 30
0.0
 11
-251230.996077
 21
150502.620364
 31
0.0
  0
LINE
  5
3F12
330
44B0
100
AcDbEntity
  8
Måleblad fuld 0_35
  6
Continuous
 62
     7
370
    13
100
AcDbLine
 10
-251295.767916
 20
150517.025671
 30
0.0
 11
-251284.886393
 21
150519.878931
 31
0.0
  0
LINE
  5
3F13
330
44B0
100
AcDbEntity
  8
Måleblad fuld 0_35
  6
Continuous
 62
     7
370
    13
100
AcDbLine
 10
-251284.886393
 20
150519.878931
 30
0.0
 11
-251266.609106
 21
150524.66547
 31
0.0
  0
LINE
  5
3F14
330
44B0
100
AcDbEntity
  8
Måleblad fuld 0_35
  6
Continuous
 62
     7
370
    13
100
AcDbLine
 10
-251278.056684
 20
150470.065771
 30
0.0
 11
-251294.752459
 21
150493.92575
 31
0.0
  0
LINE
  5
3F15
330
44B0
100
AcDbEntity
  8
Måleblad fuld 0_35
  6
Continuous
 62
     7
370
    13
100
AcDbLine
 10
-251294.752459
 20
150493.92575
 30
0.0
 11
-251298.055927
 21
150507.247425
 31
0.0
  0
LINE
  5
3F16
330
44B0
100
AcDbEntity
  8
Måleblad fuld 0_35
  6
Continuous
 62
     7
370
    13
100
AcDbLine
 10
-251250.127779
 20
150489.385839
 30
0.0
 11
-251259.370028
 21
150482.99243
 31
0.0
  0
LINE
  5
3F17
330
44B0
100
AcDbEntity
  8
Måleblad fuld 0_35
  6
Continuous
 62
     7
370
    13
100
AcDbLine
 10
-251259.370028
 20
150482.99243
 30
0.0
 11
-251278.056684
 21
150470.065771
 31
0.0
  0
LINE
  5
3F18
330
44B0
100
AcDbEntity
  8
Måleblad fuld 0_35
  6
Continuous
 62
     7
370
    13
100
AcDbLine
 10
-251278.056684
 20
150470.065771
 30
0.0
 11
-251268.726238
 21
150456.740574
 31
0.0
  0
LINE
  5
3F19
330
44B0
100
AcDbEntity
  8
Måleblad fuld 0_35
  6
Continuous
 62
     7
370
    13
100
AcDbLine
 10
-251284.886393
 20
150519.878931
 30
0.0
 11
-251263.921144
 21
150489.571532
 31
0.0
  0
LINE
  5
3F1A
330
44B0
100
AcDbEntity
  8
Måleblad fuld 0_35
  6
Continuous
 62
     7
370
    13
100
AcDbLine
 10
-251263.921144
 20
150489.571532
 30
0.0
 11
-251259.370028
 21
150482.99243
 31
0.0
  0
ARC
  5
3F1B
330
44B0
100
AcDbEntity
  8
Måleblad fuld 0_35
  6
Continuous
 62
     7
370
    13
100
AcDbCircle
 10
-251454.389204
 20
150305.096401
 30
0.0
 40
30.75105092363109
100
AcDbArc
 50
320.82291
 51
325.759721
  0
ARC
  5
3F1C
330
44B0
100
AcDbEntity
  8
Måleblad fuld 0_35
  6
Continuous
 62
     7
370
    13
100
AcDbCircle
 10
251402.144633
 20
150269.890391
 30
0.0
 40
32.24926307396591
210
0.0
220
0.0
230
-1.0
100
AcDbArc
 50
44.650136
 51
55.32611
  0
ARC
  5
3F1D
330
44B0
100
AcDbEntity
  8
Måleblad fuld 0_35
  6
Continuous
 62
     7
370
    13
100
AcDbCircle
 10
-251429.122021
 20
150353.111896
 30
0.0
 40
4.999868731083275
100
AcDbArc
 50
246.46497
 51
296.120181
  0
ARC
  5
3F1E
330
44B0
100
AcDbEntity
  8
Måleblad fuld 0_35
  6
Continuous
 62
     7
370
    13
100
AcDbCircle
 10
251411.099544
 20
150363.062666
 30
0.0
 40
5.999883961426444
210
0.0
220
0.0
230
-1.0
100
AcDbArc
 50
202.000544
 51
243.87968
  0
ARC
  5
3F1F
330
44B0
100
AcDbEntity
  8
Måleblad fuld 0_35
  6
Continuous
 62
     7
370
    13
100
AcDbCircle
 10
251592.180613
 20
150306.375693
 30
0.0
 40
195.7464688213006
210
0.0
220
0.0
230
-1.0
100
AcDbArc
 50
159.215286
 51
162.6174
  0
ARC
  5
3F20
330
44B0
100
AcDbEntity
  8
Måleblad fuld 0_35
  6
Continuous
 62
     7
370
    13
100
AcDbCircle
 10
251422.535702
 20
150337.408152
 30
0.0
 40
3.999924157524383
210
0.0
220
0.0
230
-1.0
100
AcDbArc
 50
17.043023
 51
63.879668
  0
ARC
  5
3F21
330
44B0
100
AcDbEntity
  8
Måleblad fuld 0_35
  6
Continuous
 62
     7
370
    13
100
AcDbCircle
 10
251406.053891
 20
150343.262317
 30
0.0
 40
5.999849549034168
210
0.0
220
0.0
230
-1.0
100
AcDbArc
 50
114.570234
 51
168.790521
  0
ARC
  5
3F22
330
44B0
100
AcDbEntity
  8
Måleblad fuld 0_35
  6
Continuous
 62
     7
370
    13
100
AcDbCircle
 10
-251592.180835
 20
150306.375633
 30
0.0
 40
195.7466988477629
100
AcDbArc
 50
9.647409
 51
11.209639
  0
ARC
  5
3F23
330
44B0
100
AcDbEntity
  8
Måleblad fuld 0_35
  6
Continuous
 62
     7
370
    13
100
AcDbCircle
 10
-251592.180835
 20
150306.375633
 30
0.0
 40
195.7466986515912
100
AcDbArc
 50
6.088486
 51
7.918583
  0
ARC
  5
3F24
330
44B0
100
AcDbEntity
  8
Måleblad fuld 0_35
  6
Continuous
 62
     7
370
    13
100
AcDbCircle
 10
-251483.312988
 20
150313.293732
 30
0.0
 40
141.9374822991923
100
AcDbArc
 50
21.602053
 51
23.975975
  0
ARC
  5
3F25
330
44B0
100
AcDbEntity
  8
Måleblad fuld 0_35
  6
Continuous
 62
     7
370
    13
100
AcDbCircle
 10
-251330.470696
 20
150366.426554
 30
0.0
 40
19.87680387526291
100
AcDbArc
 50
220.263875
 51
245.117881
  0
ARC
  5
3F26
330
44B0
100
AcDbEntity
  8
Måleblad fuld 0_35
  6
Continuous
 62
     7
370
    13
100
AcDbCircle
 10
-251402.808233
 20
150364.2945
 30
0.0
 40
47.15044345298713
100
AcDbArc
 50
43.230913
 51
58.697846
  0
LINE
  5
3F27
330
44B0
100
AcDbEntity
  8
Måleblad fuld 0_35
  6
Continuous
 62
     7
370
    13
100
AcDbLine
 10
-251360.577665
 20
150385.264562
 30
0.0
 11
-251356.18588
 21
150376.42017
 31
0.0
  0
LINE
  5
3F28
330
44B0
100
AcDbEntity
  8
Måleblad fuld 0_35
  6
Continuous
 62
     7
370
    13
100
AcDbLine
 10
-251356.18588
 20
150376.42017
 30
0.0
 11
-251355.544817
 21
150375.112364
 31
0.0
  0
ARC
  5
3F29
330
44B0
100
AcDbEntity
  8
Måleblad fuld 0_35
  6
Continuous
 62
     7
370
    13
100
AcDbCircle
 10
-251313.884299
 20
150392.380114
 30
0.0
 40
4.749914179600716
100
AcDbArc
 50
170.823266
 51
214.673679
  0
ARC
  5
3F2A
330
44B0
100
AcDbEntity
  8
Måleblad fuld 0_35
  6
Continuous
 62
     7
370
    13
100
AcDbCircle
 10
-251323.839893
 20
150406.771868
 30
0.0
 40
4.749871968462548
100
AcDbArc
 50
260.688586
 51
304.673884
  0
ARC
  5
3F2B
330
44B0
100
AcDbEntity
  8
Måleblad fuld 0_35
  6
Continuous
 62
     7
370
    13
100
AcDbCircle
 10
-251264.464746
 20
150425.350131
 30
0.0
 40
5.750280305507146
100
AcDbArc
 50
80.612876
 51
124.673888
  0
ARC
  5
3F2C
330
44B0
100
AcDbEntity
  8
Måleblad fuld 0_35
  6
Continuous
 62
     7
370
    13
100
AcDbCircle
 10
-251275.644478
 20
150441.327498
 30
0.0
 40
5.749916116346866
100
AcDbArc
 50
345.060014
 51
35.242353
  0
ARC
  5
3F2D
330
44B0
100
AcDbEntity
  8
Måleblad fuld 0_35
  6
Continuous
 62
     7
370
    13
100
AcDbCircle
 10
-251252.205196
 20
150443.586256
 30
0.0
 40
5.999892143664892
100
AcDbArc
 50
169.195177
 51
214.981772
  0
ARC
  5
3F2E
330
44B0
100
AcDbEntity
  8
Måleblad fuld 0_35
  6
Continuous
 62
     7
370
    13
100
AcDbCircle
 10
-251263.671302
 20
150459.972553
 30
0.0
 40
5.999839259431714
100
AcDbArc
 50
260.003431
 51
304.981977
  0
ARC
  5
3F2F
330
44B0
100
AcDbEntity
  8
Måleblad fuld 0_35
  6
Continuous
 62
     7
370
    13
100
AcDbCircle
 10
-251241.459921
 20
150475.209667
 30
0.0
 40
5.749896733548943
100
AcDbArc
 50
351.797097
 51
34.981774
  0
ARC
  5
3F30
330
44B0
100
AcDbEntity
  8
Måleblad fuld 0_35
  6
Continuous
 62
     7
370
    13
100
AcDbCircle
 10
251247.425554
 20
150485.479528
 30
0.0
 40
4.749872173449479
210
0.0
220
0.0
230
-1.0
100
AcDbArc
 50
98.398677
 51
145.018317
  0
ARC
  5
3F31
330
44B0
100
AcDbEntity
  8
Måleblad fuld 0_35
  6
Continuous
 62
     7
370
    13
100
AcDbCircle
 10
251233.033591
 20
150495.435244
 30
0.0
 40
4.749914659175472
210
0.0
220
0.0
230
-1.0
100
AcDbArc
 50
12.500171
 51
55.326016
  0
ARC
  5
3F32
330
44B0
100
AcDbEntity
  8
Måleblad fuld 0_35
  6
Continuous
 62
     7
370
    13
100
AcDbCircle
 10
251225.483274
 20
150486.389088
 30
0.0
 40
5.749845329605756
210
0.0
220
0.0
230
-1.0
100
AcDbArc
 50
280.556588
 51
325.018317
  0
ARC
  5
3F33
330
44B0
100
AcDbEntity
  8
Måleblad fuld 0_35
  6
Continuous
 62
     7
370
    13
100
AcDbCircle
 10
251200.531835
 20
150502.628163
 30
0.0
 40
4.749914928583775
210
0.0
220
0.0
230
-1.0
100
AcDbArc
 50
187.571203
 51
235.017924
  0
ARC
  5
3F34
330
44B0
100
AcDbEntity
  8
Måleblad fuld 0_35
  6
Continuous
 62
     7
370
    13
100
AcDbCircle
 10
-251190.398813
 20
150488.360251
 30
0.0
 40
4.749872242745387
100
AcDbArc
 50
77.675454
 51
124.981984
  0
ARC
  5
3F35
330
44B0
100
AcDbEntity
  8
Måleblad fuld 0_35
  6
Continuous
 62
     7
370
    13
100
AcDbCircle
 10
-251234.125802
 20
150398.739453
 30
0.0
 40
130.0481709929048
100
AcDbArc
 50
102.0455
 51
104.464436
  0
ARC
  5
3F36
330
44B0
100
AcDbEntity
  8
Måleblad fuld 0_35
  6
Continuous
 62
     7
370
    13
100
AcDbCircle
 10
251235.536435
 20
150403.870305
 30
0.0
 40
124.7553445208993
210
0.0
220
0.0
230
-1.0
100
AcDbArc
 50
84.213804
 51
87.873262
  0
ARC
  5
3F37
330
44B0
100
AcDbEntity
  8
Måleblad fuld 0_35
  6
Continuous
 62
     7
370
    13
100
AcDbCircle
 10
-251242.782285
 20
150598.52014
 30
0.0
 40
70.0293089700018
100
AcDbArc
 50
279.548279
 51
286.404377
  0
ARC
  5
3F38
330
44B0
100
AcDbEntity
  8
Måleblad fuld 0_35
  6
Continuous
 62
     7
370
    13
100
AcDbCircle
 10
251287.350285
 20
150509.899221
 30
0.0
 40
11.02917895723531
210
0.0
220
0.0
230
-1.0
100
AcDbArc
 50
12.430502
 51
40.251582
  0
ARC
  5
3F39
330
44B0
100
AcDbEntity
  8
Måleblad fuld 0_35
  6
Continuous
 62
     7
370
    13
100
AcDbCircle
 10
251171.639229
 20
150452.497555
 30
0.0
 40
93.57098295056848
210
0.0
220
0.0
230
-1.0
100
AcDbArc
 50
76.937657
 51
83.495086
  0
LWPOLYLINE
  5
3F3C
330
44B0
100
AcDbEntity
  8
Måleblad fuld 0_35
  6
Continuous
 62
     7
370
    13
100
AcDbPolyline
 90
        2
 70
   128
 43
0.0
 10
-251338.833818
 20
150348.394667
 10
-251395.957
 20
150308.879
  0
LWPOLYLINE
  5
3F3D
330
44B0
100
AcDbEntity
  8
Måleblad fuld 0_35
  6
Continuous
 62
     7
370
    13
100
AcDbPolyline
 90
        2
 70
   128
 43
0.0
 10
-251312.231285
 20
150366.797298
 10
-251338.833818
 20
150348.394667
  0
LWPOLYLINE
  5
3F3E
330
44B0
100
AcDbEntity
  8
Måleblad fuld 0_35
  6
Continuous
 62
     7
370
    13
100
AcDbPolyline
 90
        2
 70
   128
 43
0.0
 10
-251139.958753
 20
150490.528105
 10
-251152.893139
 20
150510.256545
  0
LWPOLYLINE
  5
3F3F
330
44B0
100
AcDbEntity
  8
Måleblad fuld 0_35
  6
Continuous
 62
     7
370
    13
100
AcDbPolyline
 90
        2
 70
   128
 43
0.0
 10
-251152.893139
 20
150510.256545
 10
-251168.450992
 20
150533.986482
  0
LWPOLYLINE
  5
3F40
330
44B0
100
AcDbEntity
  8
Måleblad fuld 0_35
  6
Continuous
 62
     7
370
    13
100
AcDbPolyline
 90
        2
 70
   128
 43
0.0
 10
-251433.198953
 20
150283.116616
 10
-251437.168
 20
150280.371
  0
LWPOLYLINE
  5
3F41
330
44B0
100
AcDbEntity
  8
Måleblad fuld 0_35
  6
Continuous
 62
     7
370
    13
100
AcDbPolyline
 90
        2
 70
   128
 43
0.0
 10
-251432.195111
 20
150283.811031
 10
-251433.198953
 20
150283.116616
  0
LINE
  5
3F42
330
44B0
100
AcDbEntity
  8
Måleblad fuld 0_35
  6
Continuous
 62
     7
370
    13
100
AcDbLine
 10
-251168.450992
 20
150533.986482
 30
0.0
 11
-251176.343128
 21
150546.024218
 31
0.0
  0
LINE
  5
3F43
330
44B0
100
AcDbEntity
  8
Måleblad fuld 0_35
  6
Continuous
 62
     7
370
    13
100
AcDbLine
 10
-251176.343128
 20
150546.024218
 30
0.0
 11
-251179.096
 21
150550.223
 31
0.0
  0
MTEXT
  5
402E
102
{ACAD_XDICTIONARY
360
4567
102
}
330
44B0
100
AcDbEntity
  8
Måleblad tekst kursiv 0_15
  6
Continuous
 62
     7
370
     0
100
AcDbMText
 10
-251373.138783
 20
150360.006533
 30
0.0
 40
3.0
 41
0.0
 71
     5
 72
     1
  1
Delnr. 23 af 3af\P11045m\U+00B2\Ph.v. 5263m\U+00B2
  7
Tiimes New Roman
 11
0.866025
 21
0.5
 31
0.0
 73
     2
 44
0.791214
1001
ACAD
1000
MTEXTBEGIN
1070
    73
1070
     2
1070
    44
1040
0.791214
1070
    74
1070
     0
1000
MTEXTEND
  0
TEXT
  5
4067
330
44B0
100
AcDbEntity
  8
Måleblad tekst kursiv 0_15
  6
Continuous
 62
     7
370
     0
100
AcDbText
 10
-251242.468645
 20
150461.239745
 30
0.0
 40
3.0
  1
Priv. fællesvej
 50
34.981984
  7
Tiimes New Roman
 72
     1
 11
-251231.984499
 21
150468.575911
 31
0.0
100
AcDbText
  0
TEXT
  5
4069
330
44B0
100
AcDbEntity
  8
Måleblad tekst kursiv 0_15
  6
Continuous
 62
     7
370
     0
100
AcDbText
 10
-251308.297387
 20
150405.183186
 30
0.0
 40
3.0
  1
Priv. fællesvej
 50
34.673888
  7
Tiimes New Roman
 72
     1
 11
-251297.773944
 21
150412.46287
 31
0.0
100
AcDbText
  0
TEXT
  5
406A
330
44B0
100
AcDbEntity
  8
Måleblad tekst kursiv 0_15
  6
Continuous
 62
     7
370
     0
100
AcDbText
 10
-251421.561541
 20
150345.014588
 30
0.0
 40
3.0
  1
Priv. fællesvej
 50
26.12032
  7
Tiimes New Roman
 72
     1
 11
-251410.072411
 21
150350.648108
 31
0.0
100
AcDbText
  0
INSERT
  5
406B
330
44B0
100
AcDbEntity
  8
Måleblad fuld 0_15
  6
Continuous
 62
     7
370
     0
100
AcDbBlockReference
  2
Nordpil
 10
-251333.407829
 20
150470.080625
 30
0.0
 41
0.8
 42
0.8
  0
TEXT
  5
4092
330
44B0
100
AcDbEntity
  8
Måleblad tekst kursiv 0_15
  6
Continuous
 62
     7
370
     0
100
AcDbText
 10
-251428.385238
 20
150335.693828
 30
0.0
 40
1.5
  1
R = 4.00
 50
70.919265
  7
Style-Arial Narrow
100
AcDbText
  0
TEXT
  5
4094
330
44B0
100
AcDbEntity
  8
Måleblad tekst kursiv 0_15
  6
Continuous
 62
     7
370
     0
100
AcDbText
 10
-251433.614599
 20
150347.750589
 30
0.0
 40
1.5
  1
R = 5.00
 50
333.585355
  7
Style-Arial Narrow
100
AcDbText
  0
TEXT
  5
4095
330
44B0
100
AcDbEntity
  8
Måleblad tekst kursiv 0_15
  6
Continuous
 62
     7
370
     0
100
AcDbText
 10
-251404.747974
 20
150350.468102
 30
0.0
 40
1.5
  1
R = 6.00
 50
332.310128
  7
Style-Arial Narrow
100
AcDbText
  0
TEXT
  5
4096
330
44B0
100
AcDbEntity
  8
Måleblad tekst kursiv 0_15
  6
Continuous
 62
     7
370
     0
100
AcDbText
 10
-251398.89194
 20
150342.780689
 30
0.0
 40
1.5
  1
R = 195.75
 50
279.954025
  7
Style-Arial Narrow
100
AcDbText
  0
TEXT
  5
4097
330
44B0
100
AcDbEntity
  8
Måleblad tekst kursiv 0_15
  6
Continuous
 62
     7
370
     0
100
AcDbText
 10
-251396.912461
 20
150331.676003
 30
0.0
 40
1.5
  1
R = 195.75
 50
276.352698
  7
Style-Arial Narrow
100
AcDbText
  0
TEXT
  5
4098
330
44B0
100
AcDbEntity
  8
Måleblad tekst kursiv 0_15
  6
Continuous
 62
     7
370
     0
100
AcDbText
 10
-251427.480481
 20
150290.923899
 30
0.0
 40
1.5
  1
R = 32.25
 50
48.69631
  7
Style-Arial Narrow
100
AcDbText
  0
TEXT
  5
4099
330
44B0
100
AcDbEntity
  8
Måleblad tekst kursiv 0_15
  6
Continuous
 62
     7
370
     0
100
AcDbText
 10
-251433.220322
 20
150284.467347
 30
0.0
 40
1.5
  1
R = 30.75
 50
51.379013
  7
Style-Arial Narrow
100
AcDbText
  0
TEXT
  5
409A
330
44B0
100
AcDbEntity
  8
Måleblad tekst kursiv 0_15
  6
Continuous
 62
     7
370
     0
100
AcDbText
 10
-251404.863895
 20
150357.844216
 30
0.0
 40
1.5
  1
R = 6.00
 50
62.503193
  7
Style-Arial Narrow
100
AcDbText
  0
TEXT
  5
409B
330
44B0
100
AcDbEntity
  8
Måleblad tekst kursiv 0_15
  6
Continuous
 62
     7
370
     0
100
AcDbText
 10
-251408.923456
 20
150378.744605
 30
0.0
 40
1.5
  1
R = 195.75
 50
291.146546
  7
Style-Arial Narrow
100
AcDbText
  0
TEXT
  5
409C
330
44B0
100
AcDbEntity
  8
Måleblad tekst kursiv 0_15
  6
Continuous
 62
     7
370
     0
100
AcDbText
 10
-251369.017487
 20
150399.19771
 30
0.0
 40
1.5
  1
R = 47.15
 50
312.107848
  7
Style-Arial Narrow
100
AcDbText
  0
TEXT
  5
409D
330
44B0
100
AcDbEntity
  8
Måleblad tekst kursiv 0_15
  6
Continuous
 62
     7
370
     0
100
AcDbText
 10
-251352.150975
 20
150369.034464
 30
0.0
 40
1.5
  1
R = 141.94
 50
292.077313
  7
Style-Arial Narrow
100
AcDbText
  0
TEXT
  5
409E
330
44B0
100
AcDbEntity
  8
Måleblad tekst kursiv 0_15
  6
Continuous
 62
     7
370
     0
100
AcDbText
 10
-251346.740873
 20
150356.657539
 30
0.0
 40
1.5
  1
R = 19.88
 50
312.701159
  7
Style-Arial Narrow
100
AcDbText
  0
TEXT
  5
40A1
330
44B0
100
AcDbEntity
  8
Måleblad tekst kursiv 0_15
  6
Continuous
 62
     7
370
     0
100
AcDbText
 10
-251320.175952
 20
150391.216945
 30
0.0
 40
1.5
  1
R = 4.75
 50
75.575766
  7
Style-Arial Narrow
100
AcDbText
  0
TEXT
  5
40A2
330
44B0
100
AcDbEntity
  8
Måleblad tekst kursiv 0_15
  6
Continuous
 62
     7
370
     0
100
AcDbText
 10
-251327.186588
 20
150400.319651
 30
0.0
 40
1.5
  1
R = 4.75
 50
353.464019
  7
Style-Arial Narrow
100
AcDbText
  0
TEXT
  5
40A3
330
44B0
100
AcDbEntity
  8
Måleblad tekst kursiv 0_15
  6
Continuous
 62
     7
370
     0
100
AcDbText
 10
-251268.710982
 20
150441.90469
 30
0.0
 40
1.5
  1
R = 5.75
 50
258.467631
  7
Style-Arial Narrow
100
AcDbText
  0
TEXT
  5
40A4
330
44B0
100
AcDbEntity
  8
Måleblad tekst kursiv 0_15
  6
Continuous
 62
     7
370
     0
100
AcDbText
 10
-251265.440735
 20
150432.883647
 30
0.0
 40
1.5
  1
R = 5.75
 50
349.40939
  7
Style-Arial Narrow
100
AcDbText
  0
TEXT
  5
40A5
330
44B0
100
AcDbEntity
  8
Måleblad tekst kursiv 0_15
  6
Continuous
 62
     7
370
     0
100
AcDbText
 10
-251259.368175
 20
150442.722098
 30
0.0
 40
1.5
  1
R = 6.00
 50
78.467631
  7
Style-Arial Narrow
100
AcDbText
  0
TEXT
  5
40A6
330
44B0
100
AcDbEntity
  8
Måleblad tekst kursiv 0_15
  6
Continuous
 62
     7
370
     0
100
AcDbText
 10
-251267.499104
 20
150452.504411
 30
0.0
 40
1.5
  1
R = 6.00
 50
346.99926
  7
Style-Arial Narrow
100
AcDbText
  0
TEXT
  5
40A7
330
44B0
100
AcDbEntity
  8
Måleblad tekst kursiv 0_15
  6
Continuous
 62
     7
370
     0
100
AcDbText
 10
-251234.272681
 20
150471.58341
 30
0.0
 40
1.5
  1
R = 5.75
 50
83.353413
  7
Style-Arial Narrow
100
AcDbText
  0
TEXT
  5
40A8
330
44B0
100
AcDbEntity
  8
Måleblad tekst kursiv 0_15
  6
Continuous
 62
     7
370
     0
100
AcDbText
 10
-251248.341892
 20
150491.054348
 30
0.0
 40
1.5
  1
R = 4.75
 50
354.011925
  7
Style-Arial Narrow
100
AcDbText
  0
TEXT
  5
40A9
330
44B0
100
AcDbEntity
  8
Måleblad tekst kursiv 0_15
  6
Continuous
 62
     7
370
     0
100
AcDbText
 10
-251238.881663
 20
150494.048825
 30
0.0
 40
1.5
  1
R = 4.75
 50
73.827997
  7
Style-Arial Narrow
100
AcDbText
  0
TEXT
  5
40AA
330
44B0
100
AcDbEntity
  8
Måleblad tekst kursiv 0_15
  6
Continuous
 62
     7
370
     0
100
AcDbText
 10
-251229.765667
 20
150479.679763
 30
0.0
 40
1.5
  1
R = 5.75
 50
340.235678
  7
Style-Arial Narrow
100
AcDbText
  0
TEXT
  5
40AB
330
44B0
100
AcDbEntity
  8
Måleblad tekst kursiv 0_15
  6
Continuous
 62
     7
370
     0
100
AcDbText
 10
-251191.429976
 20
150494.097115
 30
0.0
 40
1.5
  1
R = 4.75
 50
354.682394
  7
Style-Arial Narrow
100
AcDbText
  0
TEXT
  5
40AC
330
44B0
100
AcDbEntity
  8
Måleblad tekst kursiv 0_15
  6
Continuous
 62
     7
370
     0
100
AcDbText
 10
-251194.189309
 20
150499.524025
 30
0.0
 40
1.5
  1
R = 4.75
 50
84.265384
  7
Style-Arial Narrow
100
AcDbText
  0
TEXT
  5
40AD
330
44B0
100
AcDbEntity
  8
Måleblad tekst kursiv 0_15
  6
Continuous
 62
     7
370
     0
100
AcDbText
 10
-251299.558849
 20
150510.283725
 30
0.0
 40
1.5
  1
R = 11.03
 50
73.484919
  7
Style-Arial Narrow
100
AcDbText
  0
TEXT
  5
40AE
330
44B0
100
AcDbEntity
  8
Måleblad tekst kursiv 0_15
  6
Continuous
 62
     7
370
     0
100
AcDbText
 10
-251263.661787
 20
150526.999692
 30
0.0
 40
1.5
  1
R = 130.05
 50
11.879535
  7
Style-Arial Narrow
100
AcDbText
  0
TEXT
  5
40AF
330
44B0
100
AcDbEntity
  8
Måleblad tekst kursiv 0_15
  6
Continuous
 62
     7
370
     0
100
AcDbText
 10
-251251.405506
 20
150529.05373
 30
0.0
 40
1.5
  1
R = 124.75
 50
5.722172
  7
Style-Arial Narrow
100
AcDbText
  0
TEXT
  5
40B0
330
44B0
100
AcDbEntity
  8
Måleblad tekst kursiv 0_15
  6
Continuous
 62
     7
370
     0
100
AcDbText
 10
-251234.416578
 20
150530.100594
 30
0.0
 40
1.5
  1
R = 70.03
 50
9.679167
  7
Style-Arial Narrow
100
AcDbText
  0
TEXT
  5
40B1
330
44B0
100
AcDbEntity
  8
Måleblad tekst kursiv 0_15
  6
Continuous
 62
     7
370
     0
100
AcDbText
 10
-251195.216726
 20
150543.752435
 30
0.0
 40
1.5
  1
R = 93.57
 50
13.006355
  7
Style-Arial Narrow
100
AcDbText
  0
TEXT
  5
409F
330
44B0
100
AcDbEntity
  8
Måleblad tekst kursiv 0_15
  6
Continuous
 62
     7
370
     0
100
AcDbText
 10
-251304.803544
 20
150375.572323
 30
0.0
 40
1.5
  1
R = 122.25
 50
45.036274
  7
Style-Arial Narrow
100
AcDbText
  0
TEXT
  5
40B4
330
44B0
100
AcDbEntity
  8
Måleblad tekst kursiv 0_15
  6
Continuous
 62
     7
370
     0
100
AcDbText
 10
-251243.59562
 20
150408.969855
 30
0.0
 40
3.0
  1
Priv. fællesvej
 50
304.673888
  7
Tiimes New Roman
 72
     1
 11
-251236.315936
 21
150398.446412
 31
0.0
100
AcDbText
  0
INSERT
  5
40B5
330
44B0
100
AcDbEntity
  8
Måleblad fuld 0_15
  6
Continuous
 62
     7
370
     0
100
AcDbBlockReference
  2
RETLIM
 10
-251168.450992
 20
150533.986482
 30
0.0
 41
0.8
 42
0.8
 50
303.912452
  0
INSERT
  5
40BB
330
44B0
100
AcDbEntity
  8
Måleblad fuld 0_15
  6
Continuous
 62
     7
370
     0
100
AcDbBlockReference
  2
RETLIM
 10
-251152.893126
 20
150510.256527
 30
0.0
 41
0.8
 42
0.8
 50
303.912452
  0
INSERT
  5
40C1
330
44B0
100
AcDbEntity
  8
Måleblad fuld 0_15
  6
Continuous
 62
     7
370
     0
100
AcDbBlockReference
  2
RETLIM
 10
-251139.958744
 20
150490.528092
 30
0.0
 41
0.8
 42
0.8
 50
303.912452
  0
INSERT
  5
40C7
330
44B0
100
AcDbEntity
  8
Måleblad fuld 0_15
  6
Continuous
 62
     7
370
     0
100
AcDbBlockReference
  2
RETLIM
 10
-251176.343128
 20
150546.024218
 30
0.0
 41
0.8
 42
0.8
 50
303.912452
  0
INSERT
  5
40CD
330
44B0
100
AcDbEntity
  8
Måleblad fuld 0_15
  6
Continuous
 62
     7
370
     0
100
AcDbBlockReference
  2
RETLIM
 10
-251312.231285
 20
150366.797298
 30
0.0
 41
0.8
 42
0.8
 50
214.771441
  0
INSERT
  5
40D3
330
44B0
100
AcDbEntity
  8
Måleblad fuld 0_15
  6
Continuous
 62
     7
370
     0
100
AcDbBlockReference
  2
RETLIM
 10
-251338.833818
 20
150348.394667
 30
0.0
 41
0.8
 42
0.8
 50
214.771441
  0
INSERT
  5
40D9
330
44B0
100
AcDbEntity
  8
Måleblad fuld 0_15
  6
Continuous
 62
     7
370
     0
100
AcDbBlockReference
  2
RETLIM
 10
-251432.195111
 20
150283.811031
 30
0.0
 41
0.8
 42
0.8
 50
214.771441
  0
INSERT
  5
40DF
330
44B0
100
AcDbEntity
  8
Måleblad fuld 0_15
  6
Continuous
 62
     7
370
     0
100
AcDbBlockReference
  2
RETLIM
 10
-251433.199119
 20
150283.116855
 30
0.0
 41
0.8
 42
0.8
 50
214.771441
  0
INSERT
  5
4182
330
44B0
100
AcDbEntity
  8
Skelpunkt øvrige mål (Kl 2)
  6
Continuous
 62
   173
370
    13
100
AcDbBlockReference
  2
SKELP
 10
-251450.243
 20
150309.17
 30
0.000001
  0
INSERT
  5
4184
330
44B0
100
AcDbEntity
  8
Skelpunkt øvrige mål (Kl 2)
  6
Continuous
 62
   173
370
    13
100
AcDbBlockReference
  2
SKELP
 10
-251427.518
 20
150320.313
 30
0.000001
  0
INSERT
  5
4186
330
44B0
100
AcDbEntity
  8
Skelpunkt øvrige mål (Kl 2)
  6
Continuous
 62
   173
370
    13
100
AcDbBlockReference
  2
SKELP
 10
-251420.335
 20
150323.835
 30
0.000001
  0
INSERT
  5
4188
330
44B0
100
AcDbEntity
  8
Skelpunkt øvrige mål (Kl 2)
  6
Continuous
 62
   173
370
    13
100
AcDbBlockReference
  2
SKELP
 10
-251410.334
 20
150303.439
 30
0.000001
  0
INSERT
  5
418A
330
44B0
100
AcDbEntity
  8
Skelpunkt øvrige mål (Kl 2)
  6
Continuous
 62
   173
370
    13
100
AcDbBlockReference
  2
SKELP
 10
-251467.43
 20
150335.442
 30
0.000001
  0
INSERT
  5
418C
330
44B0
100
AcDbEntity
  8
Skelpunkt øvrige mål (Kl 2)
  6
Continuous
 62
   173
370
    13
100
AcDbBlockReference
  2
SKELP
 10
-251441.234
 20
150348.287
 30
0.000001
  0
INSERT
  5
418E
330
44B0
100
AcDbEntity
  8
Skelpunkt øvrige mål (Kl 2)
  6
Continuous
 62
   173
370
    13
100
AcDbBlockReference
  2
SKELP
 10
-251434.052
 20
150351.809
 30
0.000001
  0
INSERT
  5
4190
330
44B0
100
AcDbEntity
  8
Skelpunkt øvrige mål (Kl 2)
  6
Continuous
 62
   173
370
    13
100
AcDbBlockReference
  2
SKELP
 10
-251444.108
 20
150372.319
 30
0.000001
  0
INSERT
  5
4192
330
44B0
100
AcDbEntity
  8
Skelpunkt øvrige mål (Kl 2)
  6
Continuous
 62
   173
370
    13
100
AcDbBlockReference
  2
SKELP
 10
-251480.032
 20
150354.705
 30
0.000001
  0
INSERT
  5
4194
330
44B0
100
AcDbEntity
  8
Skelpunkt øvrige mål (Kl 2)
  6
Continuous
 62
   173
370
    13
100
AcDbBlockReference
  2
SKELP
 10
-251413.874
 20
150387.144
 30
0.000001
  0
INSERT
  5
4196
330
44B0
100
AcDbEntity
  8
Skelpunkt øvrige mål (Kl 2)
  6
Continuous
 62
   173
370
    13
100
AcDbBlockReference
  2
SKELP
 10
-251408.458
 20
150357.676
 30
0.000001
  0
INSERT
  5
4198
330
44B0
100
AcDbEntity
  8
Skelpunkt øvrige mål (Kl 2)
  6
Continuous
 62
   173
370
    13
100
AcDbBlockReference
  2
SKELP
 10
-251405.374
 20
150364.855
 30
0.000001
  0
INSERT
  5
419A
330
44B0
100
AcDbEntity
  8
Skelpunkt øvrige mål (Kl 2)
  6
Continuous
 62
   173
370
    13
100
AcDbBlockReference
  2
SKELP
 10
-251426.921
 20
150348.623
 30
0.000001
  0
INSERT
  5
419C
330
44B0
100
AcDbEntity
  8
Skelpunkt øvrige mål (Kl 2)
  6
Continuous
 62
   173
370
    13
100
AcDbBlockReference
  2
SKELP
 10
-251378.311
 20
150404.582
 30
0.000001
  0
INSERT
  5
419E
330
44B0
100
AcDbEntity
  8
Skelpunkt øvrige mål (Kl 2)
  6
Continuous
 62
   173
370
    13
100
AcDbBlockReference
  2
SKELP
 10
-251355.545
 20
150375.112
 30
0.000001
  0
INSERT
  5
41A0
330
44B0
100
AcDbEntity
  8
Skelpunkt øvrige mål (Kl 2)
  6
Continuous
 62
   173
370
    13
100
AcDbBlockReference
  2
SKELP
 10
-251353.622
 20
150370.971
 30
0.000001
  0
INSERT
  5
41A2
330
44B0
100
AcDbEntity
  8
Skelpunkt øvrige mål (Kl 2)
  6
Continuous
 62
   173
370
    13
100
AcDbBlockReference
  2
SKELP
 10
-251349.245
 20
150359.9
 30
0.000001
  0
INSERT
  5
41A4
330
44B0
100
AcDbEntity
  8
Skelpunkt øvrige mål (Kl 2)
  6
Continuous
 62
   173
370
    13
100
AcDbBlockReference
  2
SKELP
 10
-251338.834
 20
150348.395
 30
0.000001
  0
INSERT
  5
41A6
330
44B0
100
AcDbEntity
  8
Skelpunkt øvrige mål (Kl 2)
  6
Continuous
 62
   173
370
    13
100
AcDbBlockReference
  2
SKELP
 10
-251311.928
 20
150367.142
 30
0.000001
  0
INSERT
  5
41A8
330
44B0
100
AcDbEntity
  8
Skelpunkt øvrige mål (Kl 2)
  6
Continuous
 62
   173
370
    13
100
AcDbBlockReference
  2
SKELP
 10
-251322.521
 20
150382.454
 30
0.000001
  0
INSERT
  5
41AA
330
44B0
100
AcDbEntity
  8
Skelpunkt øvrige mål (Kl 2)
  6
Continuous
 62
   173
370
    13
100
AcDbBlockReference
  2
SKELP
 10
-251327.214
 20
150389.239
 30
0.000001
  0
INSERT
  5
41AC
330
44B0
100
AcDbEntity
  8
Skelpunkt øvrige mål (Kl 2)
  6
Continuous
 62
   173
370
    13
100
AcDbBlockReference
  2
SKELP
 10
-251360.578
 20
150385.265
 30
0.000001
  0
INSERT
  5
41AE
330
44B0
100
AcDbEntity
  8
Skelpunkt øvrige mål (Kl 2)
  6
Continuous
 62
   173
370
    13
100
AcDbBlockReference
  2
SKELP
 10
-251329.774
 20
150392.939
 30
0.000001
  0
INSERT
  5
41B0
330
44B0
100
AcDbEntity
  8
Skelpunkt øvrige mål (Kl 2)
  6
Continuous
 62
   173
370
    13
100
AcDbBlockReference
  2
SKELP
 10
-251336.174
 20
150402.191
 30
0.000001
  0
INSERT
  5
41B2
330
44B0
100
AcDbEntity
  8
Skelpunkt øvrige mål (Kl 2)
  6
Continuous
 62
   173
370
    13
100
AcDbBlockReference
  2
SKELP
 10
-251329.595
 20
150406.742
 30
0.000001
  0
INSERT
  5
41B4
330
44B0
100
AcDbEntity
  8
Skelpunkt øvrige mål (Kl 2)
  6
Continuous
 62
   173
370
    13
100
AcDbBlockReference
  2
SKELP
 10
-251348.081
 20
150419.404
 30
0.000001
  0
INSERT
  5
41B6
330
44B0
100
AcDbEntity
  8
Skelpunkt øvrige mål (Kl 2)
  6
Continuous
 62
   173
370
    13
100
AcDbBlockReference
  2
SKELP
 10
-251304.018
 20
150414.708
 30
0.000001
  0
INSERT
  5
41B8
330
44B0
100
AcDbEntity
  8
Skelpunkt øvrige mål (Kl 2)
  6
Continuous
 62
   173
370
    13
100
AcDbBlockReference
  2
SKELP
 10
-251321.138
 20
150402.866
 30
0.000001
  0
INSERT
  5
41BA
330
44B0
100
AcDbEntity
  8
Skelpunkt øvrige mål (Kl 2)
  6
Continuous
 62
   173
370
    13
100
AcDbBlockReference
  2
SKELP
 10
-251327.746
 20
150404.07
 30
0.000001
  0
INSERT
  5
41BC
330
44B0
100
AcDbEntity
  8
Skelpunkt øvrige mål (Kl 2)
  6
Continuous
 62
   173
370
    13
100
AcDbBlockReference
  2
SKELP
 10
-251316.587
 20
150396.286
 30
0.000001
  0
INSERT
  5
41BE
330
44B0
100
AcDbEntity
  8
Skelpunkt øvrige mål (Kl 2)
  6
Continuous
 62
   173
370
    13
100
AcDbBlockReference
  2
SKELP
 10
-251317.791
 20
150389.678
 30
0.000001
  0
INSERT
  5
41C0
330
44B0
100
AcDbEntity
  8
Skelpunkt øvrige mål (Kl 2)
  6
Continuous
 62
   173
370
    13
100
AcDbBlockReference
  2
SKELP
 10
-251315.942
 20
150387.005
 30
0.000001
  0
INSERT
  5
41C2
330
44B0
100
AcDbEntity
  8
Skelpunkt øvrige mål (Kl 2)
  6
Continuous
 62
   173
370
    13
100
AcDbBlockReference
  2
SKELP
 10
-251295.327
 20
150410.993
 30
0.000001
  0
INSERT
  5
41C4
330
44B0
100
AcDbEntity
  8
Skelpunkt øvrige mål (Kl 2)
  6
Continuous
 62
   173
370
    13
100
AcDbBlockReference
  2
SKELP
 10
-251267.736
 20
150430.079
 30
0.000001
  0
INSERT
  5
41C6
330
44B0
100
AcDbEntity
  8
Skelpunkt øvrige mål (Kl 2)
  6
Continuous
 62
   173
370
    13
100
AcDbBlockReference
  2
SKELP
 10
-251259.722
 20
150428.602
 30
0.000001
  0
INSERT
  5
41C8
330
44B0
100
AcDbEntity
  8
Skelpunkt øvrige mål (Kl 2)
  6
Continuous
 62
   173
370
    13
100
AcDbBlockReference
  2
SKELP
 10
-251249.858
 20
150414.504
 30
0.000001
  0
INSERT
  5
41CA
330
44B0
100
AcDbEntity
  8
Skelpunkt øvrige mål (Kl 2)
  6
Continuous
 62
   173
370
    13
100
AcDbBlockReference
  2
SKELP
 10
-251282.254
 20
150392.094
 30
0.000001
  0
INSERT
  5
41CC
330
44B0
100
AcDbEntity
  8
Skelpunkt øvrige mål (Kl 2)
  6
Continuous
 62
   173
370
    13
100
AcDbBlockReference
  2
SKELP
 10
-251289.655
 20
150386.975
 30
0.000001
  0
INSERT
  5
41CE
330
44B0
100
AcDbEntity
  8
Skelpunkt øvrige mål (Kl 2)
  6
Continuous
 62
   173
370
    13
100
AcDbBlockReference
  2
SKELP
 10
-251317.604
 20
150434.349
 30
0.000001
  0
INSERT
  5
41D0
330
44B0
100
AcDbEntity
  8
Skelpunkt øvrige mål (Kl 2)
  6
Continuous
 62
   173
370
    13
100
AcDbBlockReference
  2
SKELP
 10
-251272.433
 20
150436.558
 30
0.000001
  0
INSERT
  5
41D2
330
44B0
100
AcDbEntity
  8
Skelpunkt øvrige mål (Kl 2)
  6
Continuous
 62
   173
370
    13
100
AcDbBlockReference
  2
SKELP
 10
-251270.948
 20
150444.645
 30
0.000001
  0
INSERT
  5
41D4
330
44B0
100
AcDbEntity
  8
Skelpunkt øvrige mål (Kl 2)
  6
Continuous
 62
   173
370
    13
100
AcDbBlockReference
  2
SKELP
 10
-251276.617
 20
150447.077
 30
0.000001
  0
INSERT
  5
41D6
330
44B0
100
AcDbEntity
  8
Skelpunkt øvrige mål (Kl 2)
  6
Continuous
 62
   173
370
    13
100
AcDbBlockReference
  2
SKELP
 10
-251293.581
 20
150446.127
 30
0.000001
  0
INSERT
  5
41D8
330
44B0
100
AcDbEntity
  8
Skelpunkt øvrige mål (Kl 2)
  6
Continuous
 62
   173
370
    13
100
AcDbBlockReference
  2
SKELP
 10
-251255.645
 20
150448.502
 30
0.000001
  0
INSERT
  5
41DA
330
44B0
100
AcDbEntity
  8
Skelpunkt øvrige mål (Kl 2)
  6
Continuous
 62
   173
370
    13
100
AcDbBlockReference
  2
SKELP
 10
-251257.121
 20
150440.146
 30
0.000001
  0
INSERT
  5
41DC
330
44B0
100
AcDbEntity
  8
Skelpunkt øvrige mål (Kl 2)
  6
Continuous
 62
   173
370
    13
100
AcDbBlockReference
  2
SKELP
 10
-251242.662
 20
150419.482
 30
0.000001
  0
INSERT
  5
41DE
330
44B0
100
AcDbEntity
  8
Skelpunkt øvrige mål (Kl 2)
  6
Continuous
 62
   173
370
    13
100
AcDbBlockReference
  2
SKELP
 10
-251219.45
 20
150435.539
 30
0.000001
  0
INSERT
  5
41E0
330
44B0
100
AcDbEntity
  8
Skelpunkt øvrige mål (Kl 2)
  6
Continuous
 62
   173
370
    13
100
AcDbBlockReference
  2
SKELP
 10
-251237.574
 20
150461.147
 30
0.000001
  0
INSERT
  5
41E2
330
44B0
100
AcDbEntity
  8
Skelpunkt øvrige mål (Kl 2)
  6
Continuous
 62
   173
370
    13
100
AcDbBlockReference
  2
SKELP
 10
-251215.043
 20
150476.913
 30
0.000001
  0
INSERT
  5
41E4
330
44B0
100
AcDbEntity
  8
Skelpunkt øvrige mål (Kl 2)
  6
Continuous
 62
   173
370
    13
100
AcDbBlockReference
  2
SKELP
 10
-251196.833
 20
150451.185
 30
0.000001
  0
INSERT
  5
41E6
330
44B0
100
AcDbEntity
  8
Skelpunkt øvrige mål (Kl 2)
  6
Continuous
 62
   173
370
    13
100
AcDbBlockReference
  2
SKELP
 10
-251170.926
 20
150469.106
 30
0.000001
  0
INSERT
  5
41E8
330
44B0
100
AcDbEntity
  8
Skelpunkt øvrige mål (Kl 2)
  6
Continuous
 62
   173
370
    13
100
AcDbBlockReference
  2
SKELP
 10
-251184.12
 20
150487.722
 30
0.000001
  0
INSERT
  5
41EA
330
44B0
100
AcDbEntity
  8
Skelpunkt øvrige mål (Kl 2)
  6
Continuous
 62
   173
370
    13
100
AcDbBlockReference
  2
SKELP
 10
-251186.526
 20
150491.111
 30
0.000001
  0
INSERT
  5
41EC
330
44B0
100
AcDbEntity
  8
Skelpunkt øvrige mål (Kl 2)
  6
Continuous
 62
   173
370
    13
100
AcDbBlockReference
  2
SKELP
 10
-251193.122
 20
150492.252
 30
0.000001
  0
INSERT
  5
41EE
330
44B0
100
AcDbEntity
  8
Skelpunkt øvrige mål (Kl 2)
  6
Continuous
 62
   173
370
    13
100
AcDbBlockReference
  2
SKELP
 10
-251177.59
 20
150492.344
 30
0.000001
  0
INSERT
  5
41F0
330
44B0
100
AcDbEntity
  8
Skelpunkt øvrige mål (Kl 2)
  6
Continuous
 62
   173
370
    13
100
AcDbBlockReference
  2
SKELP
 10
-251152.893
 20
150510.257
 30
0.000001
  0
INSERT
  5
41F2
330
44B0
100
AcDbEntity
  8
Skelpunkt øvrige mål (Kl 2)
  6
Continuous
 62
   173
370
    13
100
AcDbBlockReference
  2
SKELP
 10
-251139.959
 20
150490.528
 30
0.000001
  0
INSERT
  5
41F4
330
44B0
100
AcDbEntity
  8
Skelpunkt øvrige mål (Kl 2)
  6
Continuous
 62
   173
370
    13
100
AcDbBlockReference
  2
SKELP
 10
-251168.451
 20
150533.986
 30
0.000001
  0
INSERT
  5
41F6
330
44B0
100
AcDbEntity
  8
Skelpunkt øvrige mål (Kl 2)
  6
Continuous
 62
   173
370
    13
100
AcDbBlockReference
  2
SKELP
 10
-251194.382
 20
150515.987
 30
0.000001
  0
INSERT
  5
41F8
330
44B0
100
AcDbEntity
  8
Skelpunkt øvrige mål (Kl 2)
  6
Continuous
 62
   173
370
    13
100
AcDbBlockReference
  2
SKELP
 10
-251200.911
 20
150511.366
 30
0.000001
  0
INSERT
  5
41FA
330
44B0
100
AcDbEntity
  8
Skelpunkt øvrige mål (Kl 2)
  6
Continuous
 62
   173
370
    13
100
AcDbBlockReference
  2
SKELP
 10
-251206.623
 20
150519.481
 30
0.000001
  0
INSERT
  5
41FC
330
44B0
100
AcDbEntity
  8
Skelpunkt øvrige mål (Kl 2)
  6
Continuous
 62
   173
370
    13
100
AcDbBlockReference
  2
SKELP
 10
-251230.996
 20
150502.62
 30
0.000001
  0
INSERT
  5
41FE
330
44B0
100
AcDbEntity
  8
Skelpunkt øvrige mål (Kl 2)
  6
Continuous
 62
   173
370
    13
100
AcDbBlockReference
  2
SKELP
 10
-251235.736
 20
150499.342
 30
0.000001
  0
INSERT
  5
4200
330
44B0
100
AcDbEntity
  8
Skelpunkt øvrige mål (Kl 2)
  6
Continuous
 62
   173
370
    13
100
AcDbBlockReference
  2
SKELP
 10
-251236.925
 20
150492.712
 30
0.000001
  0
INSERT
  5
4202
330
44B0
100
AcDbEntity
  8
Skelpunkt øvrige mål (Kl 2)
  6
Continuous
 62
   173
370
    13
100
AcDbBlockReference
  2
SKELP
 10
-251230.194
 20
150483.093
 30
0.000001
  0
INSERT
  5
4204
330
44B0
100
AcDbEntity
  8
Skelpunkt øvrige mål (Kl 2)
  6
Continuous
 62
   173
370
    13
100
AcDbBlockReference
  2
SKELP
 10
-251222.187
 20
150481.678
 30
0.000001
  0
INSERT
  5
4206
330
44B0
100
AcDbEntity
  8
Skelpunkt øvrige mål (Kl 2)
  6
Continuous
 62
   173
370
    13
100
AcDbBlockReference
  2
SKELP
 10
-251176.343
 20
150546.024
 30
0.000001
  0
INSERT
  5
4208
330
44B0
100
AcDbEntity
  8
Skelpunkt øvrige mål (Kl 2)
  6
Continuous
 62
   173
370
    13
100
AcDbBlockReference
  2
SKELP
 10
-251203.678
 20
150540.413
 30
0.000001
  0
INSERT
  5
420A
330
44B0
100
AcDbEntity
  8
Skelpunkt øvrige mål (Kl 2)
  6
Continuous
 62
   173
370
    13
100
AcDbBlockReference
  2
SKELP
 10
-251217.516
 20
150535.338
 30
0.000001
  0
INSERT
  5
420C
330
44B0
100
AcDbEntity
  8
Skelpunkt øvrige mål (Kl 2)
  6
Continuous
 62
   173
370
    13
100
AcDbBlockReference
  2
SKELP
 10
-251216.469
 20
150533.392
 30
0.000001
  0
INSERT
  5
420E
330
44B0
100
AcDbEntity
  8
Skelpunkt øvrige mål (Kl 2)
  6
Continuous
 62
   173
370
    13
100
AcDbBlockReference
  2
SKELP
 10
-251235.547
 20
150509.199
 30
0.000001
  0
INSERT
  5
4210
330
44B0
100
AcDbEntity
  8
Skelpunkt øvrige mål (Kl 2)
  6
Continuous
 62
   173
370
    13
100
AcDbBlockReference
  2
SKELP
 10
-251240.894
 20
150505.5
 30
0.000001
  0
INSERT
  5
4212
330
44B0
100
AcDbEntity
  8
Skelpunkt øvrige mål (Kl 2)
  6
Continuous
 62
   173
370
    13
100
AcDbBlockReference
  2
SKELP
 10
-251255.751
 20
150526.977
 30
0.000001
  0
INSERT
  5
4214
330
44B0
100
AcDbEntity
  8
Skelpunkt øvrige mål (Kl 2)
  6
Continuous
 62
   173
370
    13
100
AcDbBlockReference
  2
SKELP
 10
-251240.166
 20
150528.54
 30
0.000001
  0
INSERT
  5
4216
330
44B0
100
AcDbEntity
  8
Skelpunkt øvrige mål (Kl 2)
  6
Continuous
 62
   173
370
    13
100
AcDbBlockReference
  2
SKELP
 10
-251284.886
 20
150519.879
 30
0.000001
  0
INSERT
  5
4218
330
44B0
100
AcDbEntity
  8
Skelpunkt øvrige mål (Kl 2)
  6
Continuous
 62
   173
370
    13
100
AcDbBlockReference
  2
SKELP
 10
-251295.768
 20
150517.026
 30
0.000001
  0
INSERT
  5
421A
330
44B0
100
AcDbEntity
  8
Skelpunkt øvrige mål (Kl 2)
  6
Continuous
 62
   173
370
    13
100
AcDbBlockReference
  2
SKELP
 10
-251298.056
 20
150507.247
 30
0.000001
  0
INSERT
  5
421C
330
44B0
100
AcDbEntity
  8
Skelpunkt øvrige mål (Kl 2)
  6
Continuous
 62
   173
370
    13
100
AcDbBlockReference
  2
SKELP
 10
-251294.752
 20
150493.926
 30
0.000001
  0
INSERT
  5
421E
330
44B0
100
AcDbEntity
  8
Skelpunkt øvrige mål (Kl 2)
  6
Continuous
 62
   173
370
    13
100
AcDbBlockReference
  2
SKELP
 10
-251278.057
 20
150470.066
 30
0.000001
  0
INSERT
  5
4220
330
44B0
100
AcDbEntity
  8
Skelpunkt øvrige mål (Kl 2)
  6
Continuous
 62
   173
370
    13
100
AcDbBlockReference
  2
SKELP
 10
-251259.37
 20
150482.992
 30
0.000001
  0
INSERT
  5
4222
330
44B0
100
AcDbEntity
  8
Skelpunkt øvrige mål (Kl 2)
  6
Continuous
 62
   173
370
    13
100
AcDbBlockReference
  2
SKELP
 10
-251263.921
 20
150489.572
 30
0.000001
  0
INSERT
  5
4224
330
44B0
100
AcDbEntity
  8
Skelpunkt øvrige mål (Kl 2)
  6
Continuous
 62
   173
370
    13
100
AcDbBlockReference
  2
SKELP
 10
-251250.128
 20
150489.386
 30
0.000001
  0
INSERT
  5
4226
330
44B0
100
AcDbEntity
  8
Skelpunkt øvrige mål (Kl 2)
  6
Continuous
 62
   173
370
    13
100
AcDbBlockReference
  2
SKELP
 10
-251243.534
 20
150488.203
 30
0.000001
  0
INSERT
  5
4228
330
44B0
100
AcDbEntity
  8
Skelpunkt øvrige mål (Kl 2)
  6
Continuous
 62
   173
370
    13
100
AcDbBlockReference
  2
SKELP
 10
-251236.749
 20
150478.506
 30
0.000001
  0
INSERT
  5
422A
330
44B0
100
AcDbEntity
  8
Skelpunkt øvrige mål (Kl 2)
  6
Continuous
 62
   173
370
    13
100
AcDbBlockReference
  2
SKELP
 10
-251238.163
 20
150470.499
 30
0.000001
  0
INSERT
  5
422C
330
44B0
100
AcDbEntity
  8
Skelpunkt øvrige mål (Kl 2)
  6
Continuous
 62
   173
370
    13
100
AcDbBlockReference
  2
SKELP
 10
-251260.231
 20
150455.057
 30
0.000001
  0
INSERT
  5
422E
330
44B0
100
AcDbEntity
  8
Skelpunkt øvrige mål (Kl 2)
  6
Continuous
 62
   173
370
    13
100
AcDbBlockReference
  2
SKELP
 10
-251268.726
 20
150456.741
 30
0.000001
  0
INSERT
  5
4230
330
44B0
100
AcDbEntity
  8
Skelpunkt øvrige mål (Kl 2)
  6
Continuous
 62
   173
370
    13
100
AcDbBlockReference
  2
SKELP
 10
-251266.609
 20
150524.665
 30
0.000001
  0
INSERT
  5
4232
330
44B0
100
AcDbEntity
  8
Skelpunkt øvrige mål (Kl 2)
  6
Continuous
 62
   173
370
    13
100
AcDbBlockReference
  2
SKELP
 10
-251223.005
 20
150531.342
 30
0.000001
  0
INSERT
  5
4234
330
44B0
100
AcDbEntity
  8
Skelpunkt øvrige mål (Kl 2)
  6
Continuous
 62
   173
370
    13
100
AcDbBlockReference
  2
SKELP
 10
-251182.24
 20
150545.466
 30
0.000001
  0
INSERT
  5
4236
330
44B0
100
AcDbEntity
  8
Skelpunkt øvrige mål (Kl 2)
  6
Continuous
 62
   173
370
    13
100
AcDbBlockReference
  2
SKELP
 10
-251196.659
 20
150505.378
 30
0.000001
  0
INSERT
  5
4238
330
44B0
100
AcDbEntity
  8
Skelpunkt øvrige mål (Kl 2)
  6
Continuous
 62
   173
370
    13
100
AcDbBlockReference
  2
SKELP
 10
-251197.809
 20
150498.736
 30
0.000001
  0
INSERT
  5
423A
330
44B0
100
AcDbEntity
  8
Skelpunkt øvrige mål (Kl 2)
  6
Continuous
 62
   173
370
    13
100
AcDbBlockReference
  2
SKELP
 10
-251420.491
 20
150296.412
 30
0.000001
  0
INSERT
  5
423C
330
44B0
100
AcDbEntity
  8
Skelpunkt øvrige mål (Kl 2)
  6
Continuous
 62
   173
370
    13
100
AcDbBlockReference
  2
SKELP
 10
-251396.364
 20
150313.103
 30
0.000001
  0
INSERT
  5
423E
330
44B0
100
AcDbEntity
  8
Skelpunkt øvrige mål (Kl 2)
  6
Continuous
 62
   173
370
    13
100
AcDbBlockReference
  2
SKELP
 10
-251396.941
 20
150320.455
 30
0.000001
  0
INSERT
  5
4240
330
44B0
100
AcDbEntity
  8
Skelpunkt øvrige mål (Kl 2)
  6
Continuous
 62
   173
370
    13
100
AcDbBlockReference
  2
SKELP
 10
-251398.301
 20
150333.343
 30
0.000001
  0
INSERT
  5
4242
330
44B0
100
AcDbEntity
  8
Skelpunkt øvrige mål (Kl 2)
  6
Continuous
 62
   173
370
    13
100
AcDbBlockReference
  2
SKELP
 10
-251400.169
 20
150344.429
 30
0.000001
  0
INSERT
  5
4244
330
44B0
100
AcDbEntity
  8
Skelpunkt øvrige mål (Kl 2)
  6
Continuous
 62
   173
370
    13
100
AcDbBlockReference
  2
SKELP
 10
-251408.695
 20
150348.649
 30
0.000001
  0
INSERT
  5
4246
330
44B0
100
AcDbEntity
  8
Skelpunkt øvrige mål (Kl 2)
  6
Continuous
 62
   173
370
    13
100
AcDbBlockReference
  2
SKELP
 10
-251424.297
 20
150341.0
 30
0.000001
  0
INSERT
  5
4248
330
44B0
100
AcDbEntity
  8
Skelpunkt øvrige mål (Kl 2)
  6
Continuous
 62
   173
370
    13
100
AcDbBlockReference
  2
SKELP
 10
-251426.127
 20
150335.647
 30
0.000001
  0
INSERT
  5
424A
330
44B0
100
AcDbEntity
  8
Skelpunkt øvrige mål (Kl 2)
  6
Continuous
 62
   173
370
    13
100
AcDbBlockReference
  2
SKELP
 10
-251428.968
 20
150287.794
 30
0.000001
  0
INSERT
  5
424C
330
44B0
100
AcDbEntity
  8
Skelpunkt øvrige mål (Kl 2)
  6
Continuous
 62
   173
370
    13
100
AcDbBlockReference
  2
SKELP
 10
-251432.195
 20
150283.811
 30
0.000001
  0
INSERT
  5
424E
330
44B0
100
AcDbEntity
  8
Skelpunkt øvrige mål (Kl 2)
  6
Continuous
 62
   173
370
    13
100
AcDbBlockReference
  2
SKELP
 10
-251433.199
 20
150283.117
 30
0.000001
  0
INSERT
  5
4250
330
44B0
100
AcDbEntity
  8
Skelpunkt øvrige mål (Kl 2)
  6
Continuous
 62
   173
370
    13
100
AcDbBlockReference
  2
SKELP
 10
-251433.611
 20
150350.911
 30
0.000001
  0
INSERT
  5
4252
330
44B0
100
AcDbEntity
  8
Skelpunkt øvrige mål (Kl 2)
  6
Continuous
 62
   173
370
    13
100
AcDbBlockReference
  2
SKELP
 10
-251312.231
 20
150366.797
 30
0.000001
  0
INSERT
  5
4254
330
44B0
100
AcDbEntity
  8
Skelpunkt øvrige mål (Kl 2)
  6
Continuous
 62
   173
370
    13
100
AcDbBlockReference
  2
SKELP
 10
-251356.186
 20
150376.42
 30
0.000001
  0
INSERT
  5
4256
330
44B0
100
AcDbEntity
  8
Skelpunkt øvrige mål (Kl 2)
  6
Continuous
 62
   173
370
    13
100
AcDbBlockReference
  2
SKELP
 10
-251272.8
 20
150447.291
 30
0.000001
  0
INSERT
  5
4258
330
44B0
100
AcDbEntity
  8
Skelpunkt øvrige mål (Kl 2)
  6
Continuous
 62
   173
370
    13
100
AcDbBlockReference
  2
SKELP
 10
-251405.537
 20
150360.815
 30
0.000001
  0
INSERT
  5
425A
330
44B0
100
AcDbEntity
  8
Skelpunkt øvrige mål (Kl 2)
  6
Continuous
 62
   173
370
    13
100
AcDbBlockReference
  2
SKELP
 10
-251431.119
 20
150348.528
 30
0.000001
  0
INSERT
  5
425C
330
44B0
100
AcDbEntity
  8
Skelpunkt øvrige mål (Kl 2)
  6
Continuous
 62
   173
370
    13
100
AcDbBlockReference
  2
SKELP
 10
-251426.36
 20
150338.58
 30
0.000001
  0
INSERT
  5
425E
330
44B0
100
AcDbEntity
  8
Skelpunkt øvrige mål (Kl 2)
  6
Continuous
 62
   173
370
    13
100
AcDbBlockReference
  2
SKELP
 10
-251397.538
 20
150327.137
 30
0.000001
  0
INSERT
  5
4260
330
44B0
100
AcDbEntity
  8
Skelpunkt øvrige mål (Kl 2)
  6
Continuous
 62
   173
370
    13
100
AcDbBlockReference
  2
SKELP
 10
-251399.202
 20
150339.18
 30
0.000001
  0
INSERT
  5
4262
330
44B0
100
AcDbEntity
  8
Skelpunkt øvrige mål (Kl 2)
  6
Continuous
 62
   173
370
    13
100
AcDbBlockReference
  2
SKELP
 10
-251425.087
 20
150292.554
 30
0.000001
  0
INSERT
  5
4264
330
44B0
100
AcDbEntity
  8
Skelpunkt øvrige mål (Kl 2)
  6
Continuous
 62
   173
370
    13
100
AcDbBlockReference
  2
SKELP
 10
-251430.551
 20
150285.67
 30
0.000001
  0
INSERT
  5
4266
330
44B0
100
AcDbEntity
  8
Skelpunkt øvrige mål (Kl 2)
  6
Continuous
 62
   173
370
    13
100
AcDbBlockReference
  2
SKELP
 10
-251345.638
 20
150353.58
 30
0.000001
  0
INSERT
  5
4268
330
44B0
100
AcDbEntity
  8
Skelpunkt øvrige mål (Kl 2)
  6
Continuous
 62
   173
370
    13
100
AcDbBlockReference
  2
SKELP
 10
-251351.345
 20
150365.549
 30
0.000001
  0
INSERT
  5
426A
330
44B0
100
AcDbEntity
  8
Skelpunkt øvrige mål (Kl 2)
  6
Continuous
 62
   173
370
    13
100
AcDbBlockReference
  2
SKELP
 10
-251368.454
 20
150396.59
 30
0.000001
  0
INSERT
  5
426C
330
44B0
100
AcDbEntity
  8
Skelpunkt øvrige mål (Kl 2)
  6
Continuous
 62
   173
370
    13
100
AcDbBlockReference
  2
SKELP
 10
-251318.573
 20
150393.138
 30
0.000001
  0
INSERT
  5
426E
330
44B0
100
AcDbEntity
  8
Skelpunkt øvrige mål (Kl 2)
  6
Continuous
 62
   173
370
    13
100
AcDbBlockReference
  2
SKELP
 10
-251324.608
 20
150402.085
 30
0.000001
  0
INSERT
  5
4270
330
44B0
100
AcDbEntity
  8
Skelpunkt øvrige mål (Kl 2)
  6
Continuous
 62
   173
370
    13
100
AcDbBlockReference
  2
SKELP
 10
-251263.527
 20
150431.023
 30
0.000001
  0
INSERT
  5
4272
330
44B0
100
AcDbEntity
  8
Skelpunkt øvrige mål (Kl 2)
  6
Continuous
 62
   173
370
    13
100
AcDbBlockReference
  2
SKELP
 10
-251270.089
 20
150439.845
 30
0.000001
  0
INSERT
  5
4274
330
44B0
100
AcDbEntity
  8
Skelpunkt øvrige mål (Kl 2)
  6
Continuous
 62
   173
370
    13
100
AcDbBlockReference
  2
SKELP
 10
-251258.099
 20
150444.711
 30
0.000001
  0
INSERT
  5
4276
330
44B0
100
AcDbEntity
  8
Skelpunkt øvrige mål (Kl 2)
  6
Continuous
 62
   173
370
    13
100
AcDbBlockReference
  2
SKELP
 10
-251264.713
 20
150454.064
 30
0.000001
  0
INSERT
  5
4278
330
44B0
100
AcDbEntity
  8
Skelpunkt øvrige mål (Kl 2)
  6
Continuous
 62
   173
370
    13
100
AcDbBlockReference
  2
SKELP
 10
-251235.769
 20
150474.389
 30
0.000001
  0
INSERT
  5
427A
330
44B0
100
AcDbEntity
  8
Skelpunkt øvrige mål (Kl 2)
  6
Continuous
 62
   173
370
    13
100
AcDbBlockReference
  2
SKELP
 10
-251226.537
 20
150480.737
 30
0.000001
  0
INSERT
  5
427C
330
44B0
100
AcDbEntity
  8
Skelpunkt øvrige mål (Kl 2)
  6
Continuous
 62
   173
370
    13
100
AcDbBlockReference
  2
SKELP
 10
-251246.732
 20
150490.178
 30
0.000001
  0
INSERT
  5
427E
330
44B0
100
AcDbEntity
  8
Skelpunkt øvrige mål (Kl 2)
  6
Continuous
 62
   173
370
    13
100
AcDbBlockReference
  2
SKELP
 10
-251237.671
 20
150496.463
 30
0.000001
  0
INSERT
  5
4280
330
44B0
100
AcDbEntity
  8
Skelpunkt øvrige mål (Kl 2)
  6
Continuous
 62
   173
370
    13
100
AcDbBlockReference
  2
SKELP
 10
-251195.823
 20
150502.002
 30
0.000001
  0
INSERT
  5
4282
330
44B0
100
AcDbEntity
  8
Skelpunkt øvrige mål (Kl 2)
  6
Continuous
 62
   173
370
    13
100
AcDbBlockReference
  2
SKELP
 10
-251189.385
 20
150493.001
 30
0.000001
  0
INSERT
  5
4284
330
44B0
100
AcDbEntity
  8
Skelpunkt øvrige mål (Kl 2)
  6
Continuous
 62
   173
370
    13
100
AcDbBlockReference
  2
SKELP
 10
-251192.787
 20
150543.647
 30
0.000001
  0
INSERT
  5
4286
330
44B0
100
AcDbEntity
  8
Skelpunkt øvrige mål (Kl 2)
  6
Continuous
 62
   173
370
    13
100
AcDbBlockReference
  2
SKELP
 10
-251248.114
 20
150527.99
 30
0.000001
  0
INSERT
  5
4288
330
44B0
100
AcDbEntity
  8
Skelpunkt øvrige mål (Kl 2)
  6
Continuous
 62
   173
370
    13
100
AcDbBlockReference
  2
SKELP
 10
-251231.166
 20
150529.461
 30
0.000001
  0
INSERT
  5
428A
330
44B0
100
AcDbEntity
  8
Skelpunkt øvrige mål (Kl 2)
  6
Continuous
 62
   173
370
    13
100
AcDbBlockReference
  2
SKELP
 10
-251261.265
 20
150525.924
 30
0.000001
  0
INSERT
  5
428C
330
44B0
100
AcDbEntity
  8
Skelpunkt øvrige mål (Kl 2)
  6
Continuous
 62
   173
370
    13
100
AcDbBlockReference
  2
SKELP
 10
-251298.121
 20
150512.273
 30
0.000001
  0
INSERT
  5
428E
330
44B0
100
AcDbEntity
  8
Skelpunkt øvrige mål (Kl 2)
  6
Continuous
 62
   173
370
    13
100
AcDbBlockReference
  2
SKELP
 10
-251409.173
 20
150375.838
 30
0.000001
  0
INSERT
  5
4290
330
44B0
100
AcDbEntity
  8
Skelpunkt øvrige mål (Kl 2)
  6
Continuous
 62
   173
370
    13
100
AcDbBlockReference
  2
SKELP
 10
-251403.559
 20
150348.719
 30
0.000001
  0
TEXT
  5
4153
330
44B0
100
AcDbEntity
  8
Punktnummer
  6
DGN Style 1
 62
     7
370
     0
100
AcDbText
 10
-251199.995505
 20
150504.237434
 30
0.000001
 40
2.0
  1
91
 50
30.0
  7
Style-Arial
100
AcDbText
  0
TEXT
  5
4152
330
44B0
100
AcDbEntity
  8
Punktnummer
  6
DGN Style 1
 62
     7
370
     0
100
AcDbText
 10
-251182.836506
 20
150541.650833
 30
0.000001
 40
2.0
  1
90
 50
30.0
  7
Style-Arial
100
AcDbText
  0
TEXT
  5
4155
330
44B0
100
AcDbEntity
  8
Punktnummer
  6
DGN Style 1
 62
     7
370
     0
100
AcDbText
 10
-251418.882794
 20
150294.069003
 30
0.000001
 40
2.0
  1
93
 50
30.0
  7
Style-Arial
100
AcDbText
  0
TEXT
  5
4154
330
44B0
100
AcDbEntity
  8
Punktnummer
  6
DGN Style 1
 62
     7
370
     0
100
AcDbText
 10
-251200.912452
 20
150497.5051
 30
0.000001
 40
2.0
  1
92
 50
30.0
  7
Style-Arial
100
AcDbText
  0
TEXT
  5
414F
330
44B0
100
AcDbEntity
  8
Punktnummer
  6
DGN Style 1
 62
     7
370
     0
100
AcDbText
 10
-251268.809413
 20
150457.603379
 30
0.000001
 40
2.0
  1
87
 50
30.0
  7
Style-Arial
100
AcDbText
  0
TEXT
  5
414E
330
44B0
100
AcDbEntity
  8
Punktnummer
  6
DGN Style 1
 62
     7
370
     0
100
AcDbText
 10
-251260.95391
 20
150456.447934
 30
0.000001
 40
2.0
  1
86
 50
30.0
  7
Style-Arial
100
AcDbText
  0
TEXT
  5
4151
330
44B0
100
AcDbEntity
  8
Punktnummer
  6
DGN Style 1
 62
     7
370
     0
100
AcDbText
 10
-251222.081351
 20
150528.105036
 30
0.000001
 40
2.0
  1
89
 50
30.0
  7
Style-Arial
100
AcDbText
  0
TEXT
  5
4150
330
44B0
100
AcDbEntity
  8
Punktnummer
  6
DGN Style 1
 62
     7
370
     0
100
AcDbText
 10
-251267.355958
 20
150520.434531
 30
0.000001
 40
2.0
  1
88
 50
30.0
  7
Style-Arial
100
AcDbText
  0
TEXT
  5
4156
330
44B0
100
AcDbEntity
  8
Punktnummer
  6
DGN Style 1
 62
     7
370
     0
100
AcDbText
 10
-251395.050251
 20
150312.859586
 30
0.000001
 40
2.0
  1
94
 50
30.0
  7
Style-Arial
100
AcDbText
  0
TEXT
  5
415C
330
44B0
100
AcDbEntity
  8
Punktnummer
  6
DGN Style 1
 62
     7
370
     0
100
AcDbText
 10
-251424.336059
 20
150334.168287
 30
0.000001
 40
2.0
  1
100
 50
30.0
  7
Style-Arial
100
AcDbText
  0
TEXT
  5
415B
330
44B0
100
AcDbEntity
  8
Punktnummer
  6
DGN Style 1
 62
     7
370
     0
100
AcDbText
 10
-251425.672095
 20
150341.627576
 30
0.000001
 40
2.0
  1
99
 50
30.0
  7
Style-Arial
100
AcDbText
  0
TEXT
  5
415E
330
44B0
100
AcDbEntity
  8
Punktnummer
  6
DGN Style 1
 62
     7
370
     0
100
AcDbText
 10
-251431.4233
 20
150279.91204
 30
0.000001
 40
2.0
  1
102
 50
30.0
  7
Style-Arial
100
AcDbText
  0
TEXT
  5
415D
330
44B0
100
AcDbEntity
  8
Punktnummer
  6
DGN Style 1
 62
     7
370
     0
100
AcDbText
 10
-251427.481984
 20
150287.359552
 30
0.000001
 40
2.0
  1
101
 50
30.0
  7
Style-Arial
100
AcDbText
  0
TEXT
  5
4158
330
44B0
100
AcDbEntity
  8
Punktnummer
  6
DGN Style 1
 62
     7
370
     0
100
AcDbText
 10
-251401.646476
 20
150330.88133
 30
0.000001
 40
2.0
  1
96
 50
30.0
  7
Style-Arial
100
AcDbText
  0
TEXT
  5
4157
330
44B0
100
AcDbEntity
  8
Punktnummer
  6
DGN Style 1
 62
     7
370
     0
100
AcDbText
 10
-251395.463493
 20
150319.755448
 30
0.000001
 40
2.0
  1
95
 50
30.0
  7
Style-Arial
100
AcDbText
  0
TEXT
  5
415A
330
44B0
100
AcDbEntity
  8
Punktnummer
  6
DGN Style 1
 62
     7
370
     0
100
AcDbText
 10
-251409.972515
 20
150344.763172
 30
0.000001
 40
2.0
  1
98
 50
30.0
  7
Style-Arial
100
AcDbText
  0
TEXT
  5
4159
330
44B0
100
AcDbEntity
  8
Punktnummer
  6
DGN Style 1
 62
     7
370
     0
100
AcDbText
 10
-251403.734227
 20
150341.83095
 30
0.000002
 40
2.0
  1
97
 50
30.0
  7
Style-Arial
100
AcDbText
  0
TEXT
  5
4142
330
44B0
100
AcDbEntity
  8
Punktnummer
  6
DGN Style 1
 62
     7
370
     0
100
AcDbText
 10
-251240.117274
 20
150524.59544
 30
0.000001
 40
2.0
  1
74
 50
30.0
  7
Style-Arial
100
AcDbText
  0
TEXT
  5
4141
330
44B0
100
AcDbEntity
  8
Punktnummer
  6
DGN Style 1
 62
     7
370
     0
100
AcDbText
 10
-251253.353887
 20
150524.207023
 30
0.000001
 40
2.0
  1
73
 50
30.0
  7
Style-Arial
100
AcDbText
  0
TEXT
  5
4144
330
44B0
100
AcDbEntity
  8
Punktnummer
  6
DGN Style 1
 62
     7
370
     0
100
AcDbText
 10
-251292.575226
 20
150514.732957
 30
0.000001
 40
2.0
  1
76
 50
30.0
  7
Style-Arial
100
AcDbText
  0
TEXT
  5
4143
330
44B0
100
AcDbEntity
  8
Punktnummer
  6
DGN Style 1
 62
     7
370
     0
100
AcDbText
 10
-251282.172985
 20
150517.594546
 30
0.000001
 40
2.0
  1
75
 50
30.0
  7
Style-Arial
100
AcDbText
  0
TEXT
  5
413E
330
44B0
100
AcDbEntity
  8
Punktnummer
  6
DGN Style 1
 62
     7
370
     0
100
AcDbText
 10
-251215.273419
 20
150532.668714
 30
0.000001
 40
2.0
  1
70
 50
30.0
  7
Style-Arial
100
AcDbText
  0
TEXT
  5
413D
330
44B0
100
AcDbEntity
  8
Punktnummer
  6
DGN Style 1
 62
     7
370
     0
100
AcDbText
 10
-251219.490099
 20
150536.16687
 30
0.000001
 40
2.0
  1
69
 50
30.0
  7
Style-Arial
100
AcDbText
  0
TEXT
  5
4140
330
44B0
100
AcDbEntity
  8
Punktnummer
  6
DGN Style 1
 62
     7
370
     0
100
AcDbText
 10
-251241.100432
 20
150501.604486
 30
0.000001
 40
2.0
  1
72
 50
30.0
  7
Style-Arial
100
AcDbText
  0
TEXT
  5
413F
330
44B0
100
AcDbEntity
  8
Punktnummer
  6
DGN Style 1
 62
     7
370
     0
100
AcDbText
 10
-251234.509409
 20
150509.811011
 30
0.000001
 40
2.0
  1
71
 50
30.0
  7
Style-Arial
100
AcDbText
  0
TEXT
  5
4145
330
44B0
100
AcDbEntity
  8
Punktnummer
  6
DGN Style 1
 62
     7
370
     0
100
AcDbText
 10
-251296.415726
 20
150505.774093
 30
0.000001
 40
2.0
  1
77
 50
30.0
  7
Style-Arial
100
AcDbText
  0
TEXT
  5
414B
330
44B0
100
AcDbEntity
  8
Punktnummer
  6
DGN Style 1
 62
     7
370
     0
100
AcDbText
 10
-251245.34762
 20
150484.67577
 30
0.000001
 40
2.0
  1
83
 50
30.0
  7
Style-Arial
100
AcDbText
  0
TEXT
  5
414A
330
44B0
100
AcDbEntity
  8
Punktnummer
  6
DGN Style 1
 62
     7
370
     0
100
AcDbText
 10
-251253.414672
 20
150487.90053
 30
0.000001
 40
2.0
  1
82
 50
30.0
  7
Style-Arial
100
AcDbText
  0
TEXT
  5
414D
330
44B0
100
AcDbEntity
  8
Punktnummer
  6
DGN Style 1
 62
     7
370
     0
100
AcDbText
 10
-251240.985128
 20
150470.977684
 30
0.000001
 40
2.0
  1
85
 50
30.0
  7
Style-Arial
100
AcDbText
  0
TEXT
  5
414C
330
44B0
100
AcDbEntity
  8
Punktnummer
  6
DGN Style 1
 62
     7
370
     0
100
AcDbText
 10
-251240.203673
 20
150477.695897
 30
0.000001
 40
2.0
  1
84
 50
30.0
  7
Style-Arial
100
AcDbText
  0
TEXT
  5
4147
330
44B0
100
AcDbEntity
  8
Punktnummer
  6
DGN Style 1
 62
     7
370
     0
100
AcDbText
 10
-251275.917491
 20
150468.019121
 30
0.000001
 40
2.0
  1
79
 50
30.0
  7
Style-Arial
100
AcDbText
  0
TEXT
  5
4146
330
44B0
100
AcDbEntity
  8
Punktnummer
  6
DGN Style 1
 62
     7
370
     0
100
AcDbText
 10
-251292.611749
 20
150493.736273
 30
0.000001
 40
2.0
  1
78
 50
30.0
  7
Style-Arial
100
AcDbText
  0
TEXT
  5
4149
330
44B0
100
AcDbEntity
  8
Punktnummer
  6
DGN Style 1
 62
     7
370
     0
100
AcDbText
 10
-251262.070566
 20
150487.499894
 30
0.000001
 40
2.0
  1
81
 50
30.0
  7
Style-Arial
100
AcDbText
  0
TEXT
  5
4148
330
44B0
100
AcDbEntity
  8
Punktnummer
  6
DGN Style 1
 62
     7
370
     0
100
AcDbText
 10
-251257.989609
 20
150479.698904
 30
0.000001
 40
2.0
  1
80
 50
30.0
  7
Style-Arial
100
AcDbText
  0
TEXT
  5
4175
330
44B0
100
AcDbEntity
  8
Punktnummer
  6
DGN Style 1
 62
     7
370
     0
100
AcDbText
 10
-251227.88749
 20
150481.658991
 30
0.000001
 40
2.0
  1
125
 50
30.0
  7
Style-Arial
100
AcDbText
  0
TEXT
  5
4174
330
44B0
100
AcDbEntity
  8
Punktnummer
  6
DGN Style 1
 62
     7
370
     0
100
AcDbText
 10
-251240.440108
 20
150474.242952
 30
0.000001
 40
2.0
  1
124
 50
30.0
  7
Style-Arial
100
AcDbText
  0
TEXT
  5
4177
330
44B0
100
AcDbEntity
  8
Punktnummer
  6
DGN Style 1
 62
     7
370
     0
100
AcDbText
 10
-251235.840808
 20
150494.659808
 30
0.000001
 40
2.0
  1
127
 50
30.0
  7
Style-Arial
100
AcDbText
  0
TEXT
  5
4176
330
44B0
100
AcDbEntity
  8
Punktnummer
  6
DGN Style 1
 62
     7
370
     0
100
AcDbText
 10
-251249.592524
 20
150485.521823
 30
0.000001
 40
2.0
  1
126
 50
30.0
  7
Style-Arial
100
AcDbText
  0
TEXT
  5
4171
330
44B0
100
AcDbEntity
  8
Punktnummer
  6
DGN Style 1
 62
     7
370
     0
100
AcDbText
 10
-251274.653384
 20
150439.817181
 30
0.000001
 40
2.0
  1
121
 50
30.0
  7
Style-Arial
100
AcDbText
  0
TEXT
  5
4170
330
44B0
100
AcDbEntity
  8
Punktnummer
  6
DGN Style 1
 62
     7
370
     0
100
AcDbText
 10
-251265.981699
 20
150426.714194
 30
0.000001
 40
2.0
  1
120
 50
30.0
  7
Style-Arial
100
AcDbText
  0
TEXT
  5
4173
330
44B0
100
AcDbEntity
  8
Punktnummer
  6
DGN Style 1
 62
     7
370
     0
100
AcDbText
 10
-251265.852973
 20
150455.504593
 30
0.000001
 40
2.0
  1
123
 50
30.0
  7
Style-Arial
100
AcDbText
  0
TEXT
  5
4172
330
44B0
100
AcDbEntity
  8
Punktnummer
  6
DGN Style 1
 62
     7
370
     0
100
AcDbText
 10
-251256.039783
 20
150442.429293
 30
0.000001
 40
2.0
  1
122
 50
30.0
  7
Style-Arial
100
AcDbText
  0
TEXT
  5
4178
330
44B0
100
AcDbEntity
  8
Punktnummer
  6
DGN Style 1
 62
     7
370
     0
100
AcDbText
 10
-251201.565318
 20
150500.485909
 30
0.000001
 40
2.0
  1
128
 50
30.0
  7
Style-Arial
100
AcDbText
  0
TEXT
  5
417E
330
44B0
100
AcDbEntity
  8
Punktnummer
  6
DGN Style 1
 62
     7
370
     0
100
AcDbText
 10
-251295.56755
 20
150510.582628
 30
0.000001
 40
2.0
  1
134
 50
30.0
  7
Style-Arial
100
AcDbText
  0
TEXT
  5
417D
330
44B0
100
AcDbEntity
  8
Punktnummer
  6
DGN Style 1
 62
     7
370
     0
100
AcDbText
 10
-251262.181525
 20
150521.251957
 30
0.000001
 40
2.0
  1
133
 50
30.0
  7
Style-Arial
100
AcDbText
  0
TEXT
  5
4180
330
44B0
100
AcDbEntity
  8
Punktnummer
  6
DGN Style 1
 62
     7
370
     0
100
AcDbText
 10
-251406.390805
 20
150344.052541
 30
0.000001
 40
2.0
  1
136
 50
30.0
  7
Style-Arial
100
AcDbText
  0
TEXT
  5
417F
330
44B0
100
AcDbEntity
  8
Punktnummer
  6
DGN Style 1
 62
     7
370
     0
100
AcDbText
 10
-251413.566065
 20
150374.340835
 30
0.000001
 40
2.0
  1
135
 50
30.0
  7
Style-Arial
100
AcDbText
  0
TEXT
  5
417A
330
44B0
100
AcDbEntity
  8
Punktnummer
  6
DGN Style 1
 62
     7
370
     0
100
AcDbText
 10
-251192.883931
 20
150539.477608
 30
0.000001
 40
2.0
  1
130
 50
30.0
  7
Style-Arial
100
AcDbText
  0
TEXT
  5
4179
330
44B0
100
AcDbEntity
  8
Punktnummer
  6
DGN Style 1
 62
     7
370
     0
100
AcDbText
 10
-251191.60922
 20
150488.907032
 30
0.000001
 40
2.0
  1
129
 50
30.0
  7
Style-Arial
100
AcDbText
  0
TEXT
  5
417C
330
44B0
100
AcDbEntity
  8
Punktnummer
  6
DGN Style 1
 62
     7
370
     0
100
AcDbText
 10
-251229.081833
 20
150526.283187
 30
0.000001
 40
2.0
  1
132
 50
30.0
  7
Style-Arial
100
AcDbText
  0
TEXT
  5
417B
330
44B0
100
AcDbEntity
  8
Punktnummer
  6
DGN Style 1
 62
     7
370
     0
100
AcDbText
 10
-251249.183542
 20
150523.585972
 30
0.000001
 40
2.0
  1
131
 50
30.0
  7
Style-Arial
100
AcDbText
  0
TEXT
  5
4164
330
44B0
100
AcDbEntity
  8
Punktnummer
  6
DGN Style 1
 62
     7
370
     0
100
AcDbText
 10
-251409.874457
 20
150360.898456
 30
0.000001
 40
2.0
  1
108
 50
30.0
  7
Style-Arial
100
AcDbText
  0
TEXT
  5
4163
330
44B0
100
AcDbEntity
  8
Punktnummer
  6
DGN Style 1
 62
     7
370
     0
100
AcDbText
 10
-251272.188307
 20
150447.012813
 30
0.000001
 40
2.0
  1
107
 50
30.0
  7
Style-Arial
100
AcDbText
  0
TEXT
  5
4166
330
44B0
100
AcDbEntity
  8
Punktnummer
  6
DGN Style 1
 62
     7
370
     0
100
AcDbText
 10
-251424.651396
 20
150337.053142
 30
0.000001
 40
2.0
  1
110
 50
30.0
  7
Style-Arial
100
AcDbText
  0
TEXT
  5
4165
330
44B0
100
AcDbEntity
  8
Punktnummer
  6
DGN Style 1
 62
     7
370
     0
100
AcDbText
 10
-251431.455905
 20
150349.274192
 30
0.000001
 40
2.0
  1
109
 50
30.0
  7
Style-Arial
100
AcDbText
  0
TEXT
  5
4160
330
44B0
100
AcDbEntity
  8
Punktnummer
  6
DGN Style 1
 62
     7
370
     0
100
AcDbText
 10
-251433.054916
 20
150351.077912
 30
0.000001
 40
2.0
  1
104
 50
30.0
  7
Style-Arial
100
AcDbText
  0
TEXT
  5
415F
330
44B0
100
AcDbEntity
  8
Punktnummer
  6
DGN Style 1
 62
     7
370
     0
100
AcDbText
 10
-251435.395132
 20
150277.306039
 30
0.000001
 40
2.0
  1
103
 50
30.0
  7
Style-Arial
100
AcDbText
  0
TEXT
  5
4162
330
44B0
100
AcDbEntity
  8
Punktnummer
  6
DGN Style 1
 62
     7
370
     0
100
AcDbText
 10
-251361.469889
 20
150373.722771
 30
0.000001
 40
2.0
  1
106
 50
30.0
  7
Style-Arial
100
AcDbText
  0
TEXT
  5
4161
330
44B0
100
AcDbEntity
  8
Punktnummer
  6
DGN Style 1
 62
     7
370
     0
100
AcDbText
 10
-251314.411361
 20
150361.949609
 30
0.000001
 40
2.0
  1
105
 50
30.0
  7
Style-Arial
100
AcDbText
  0
TEXT
  5
4167
330
44B0
100
AcDbEntity
  8
Punktnummer
  6
DGN Style 1
 62
     7
370
     0
100
AcDbText
 10
-251401.837375
 20
150324.801712
 30
0.000001
 40
2.0
  1
111
 50
30.0
  7
Style-Arial
100
AcDbText
  0
TEXT
  5
416D
330
44B0
100
AcDbEntity
  8
Punktnummer
  6
DGN Style 1
 62
     7
370
     0
100
AcDbText
 10
-251372.762025
 20
150392.769861
 30
0.000001
 40
2.0
  1
117
 50
30.0
  7
Style-Arial
100
AcDbText
  0
TEXT
  5
416C
330
44B0
100
AcDbEntity
  8
Punktnummer
  6
DGN Style 1
 62
     7
370
     0
100
AcDbText
 10
-251355.927785
 20
150361.731987
 30
0.000001
 40
2.0
  1
116
 50
30.0
  7
Style-Arial
100
AcDbText
  0
TEXT
  5
416F
330
44B0
100
AcDbEntity
  8
Punktnummer
  6
DGN Style 1
 62
     7
370
     0
100
AcDbText
 10
-251324.401951
 20
150402.845929
 30
0.000001
 40
2.0
  1
119
 50
30.0
  7
Style-Arial
100
AcDbText
  0
TEXT
  5
416E
330
44B0
100
AcDbEntity
  8
Punktnummer
  6
DGN Style 1
 62
     7
370
     0
100
AcDbText
 10
-251317.48304
 20
150391.662695
 30
0.000001
 40
2.0
  1
118
 50
30.0
  7
Style-Arial
100
AcDbText
  0
TEXT
  5
4169
330
44B0
100
AcDbEntity
  8
Punktnummer
  6
DGN Style 1
 62
     7
370
     0
100
AcDbText
 10
-251424.008113
 20
150290.57962
 30
0.000001
 40
2.0
  1
113
 50
30.0
  7
Style-Arial
100
AcDbText
  0
TEXT
  5
4168
330
44B0
100
AcDbEntity
  8
Punktnummer
  6
DGN Style 1
 62
     7
370
     0
100
AcDbText
 10
-251403.782744
 20
150336.209125
 30
0.000001
 40
2.0
  1
112
 50
30.0
  7
Style-Arial
100
AcDbText
  0
TEXT
  5
416B
330
44B0
100
AcDbEntity
  8
Punktnummer
  6
DGN Style 1
 62
     7
370
     0
100
AcDbText
 10
-251350.38873
 20
150349.742346
 30
0.000001
 40
2.0
  1
115
 50
30.0
  7
Style-Arial
100
AcDbText
  0
TEXT
  5
416A
330
44B0
100
AcDbEntity
  8
Punktnummer
  6
DGN Style 1
 62
     7
370
     0
100
AcDbText
 10
-251429.172824
 20
150283.588181
 30
0.000002
 40
2.0
  1
114
 50
30.0
  7
Style-Arial
100
AcDbText
  0
TEXT
  5
410F
330
44B0
100
AcDbEntity
  8
Punktnummer
  6
DGN Style 1
 62
     7
370
     0
100
AcDbText
 10
-251333.72029
 20
150391.358132
 30
0.000002
 40
2.0
  1
23
 50
30.0
  7
Style-Arial
100
AcDbText
  0
TEXT
  5
410E
330
44B0
100
AcDbEntity
  8
Punktnummer
  6
DGN Style 1
 62
     7
370
     0
100
AcDbText
 10
-251363.90019
 20
150382.002787
 30
0.000001
 40
2.0
  1
22
 50
30.0
  7
Style-Arial
100
AcDbText
  0
TEXT
  5
4111
330
44B0
100
AcDbEntity
  8
Punktnummer
  6
DGN Style 1
 62
     7
370
     0
100
AcDbText
 10
-251331.140506
 20
150407.270555
 30
0.000001
 40
2.0
  1
25
 50
30.0
  7
Style-Arial
100
AcDbText
  0
TEXT
  5
4110
330
44B0
100
AcDbEntity
  8
Punktnummer
  6
DGN Style 1
 62
     7
370
     0
100
AcDbText
 10
-251339.647871
 20
150399.895986
 30
0.000001
 40
2.0
  1
24
 50
30.0
  7
Style-Arial
100
AcDbText
  0
TEXT
  5
410B
330
44B0
100
AcDbEntity
  8
Punktnummer
  6
DGN Style 1
 62
     7
370
     0
100
AcDbText
 10
-251310.084782
 20
150365.418203
 30
0.000001
 40
2.0
  1
19
 50
30.0
  7
Style-Arial
100
AcDbText
  0
TEXT
  5
410A
330
44B0
100
AcDbEntity
  8
Punktnummer
  6
DGN Style 1
 62
     7
370
     0
100
AcDbText
 10
-251337.824084
 20
150344.885043
 30
0.000001
 40
2.0
  1
18
 50
30.0
  7
Style-Arial
100
AcDbText
  0
TEXT
  5
410D
330
44B0
100
AcDbEntity
  8
Punktnummer
  6
DGN Style 1
 62
     7
370
     0
100
AcDbText
 10
-251328.636925
 20
150385.064596
 30
0.000001
 40
2.0
  1
21
 50
30.0
  7
Style-Arial
100
AcDbText
  0
TEXT
  5
410C
330
44B0
100
AcDbEntity
  8
Punktnummer
  6
DGN Style 1
 62
     7
370
     0
100
AcDbText
 10
-251325.35703
 20
150380.311961
 30
0.000001
 40
2.0
  1
20
 50
30.0
  7
Style-Arial
100
AcDbText
  0
TEXT
  5
4112
330
44B0
100
AcDbEntity
  8
Punktnummer
  6
DGN Style 1
 62
     7
370
     0
100
AcDbText
 10
-251349.57959
 20
150415.121676
 30
0.000001
 40
2.0
  1
26
 50
30.0
  7
Style-Arial
100
AcDbText
  0
TEXT
  5
4118
330
44B0
100
AcDbEntity
  8
Punktnummer
  6
DGN Style 1
 62
     7
370
     0
100
AcDbText
 10
-251315.029371
 20
150383.731474
 30
0.000001
 40
2.0
  1
32
 50
30.0
  7
Style-Arial
100
AcDbText
  0
TEXT
  5
4117
330
44B0
100
AcDbEntity
  8
Punktnummer
  6
DGN Style 1
 62
     7
370
     0
100
AcDbText
 10
-251316.595419
 20
150389.26072
 30
0.000001
 40
2.0
  1
31
 50
30.0
  7
Style-Arial
100
AcDbText
  0
TEXT
  5
411A
330
44B0
100
AcDbEntity
  8
Punktnummer
  6
DGN Style 1
 62
     7
370
     0
100
AcDbText
 10
-251270.119644
 20
150425.283966
 30
0.000001
 40
2.0
  1
34
 50
30.0
  7
Style-Arial
100
AcDbText
  0
TEXT
  5
4119
330
44B0
100
AcDbEntity
  8
Punktnummer
  6
DGN Style 1
 62
     7
370
     0
100
AcDbText
 10
-251293.27148
 20
150409.499163
 30
0.000001
 40
2.0
  1
33
 50
30.0
  7
Style-Arial
100
AcDbText
  0
TEXT
  5
4114
330
44B0
100
AcDbEntity
  8
Punktnummer
  6
DGN Style 1
 62
     7
370
     0
100
AcDbText
 10
-251320.293254
 20
150400.120974
 30
0.000001
 40
2.0
  1
28
 50
30.0
  7
Style-Arial
100
AcDbText
  0
TEXT
  5
4113
330
44B0
100
AcDbEntity
  8
Punktnummer
  6
DGN Style 1
 62
     7
370
     0
100
AcDbText
 10
-251304.518476
 20
150416.265847
 30
0.000001
 40
2.0
  1
27
 50
30.0
  7
Style-Arial
100
AcDbText
  0
TEXT
  5
4116
330
44B0
100
AcDbEntity
  8
Punktnummer
  6
DGN Style 1
 62
     7
370
     0
100
AcDbText
 10
-251316.955354
 20
150397.02411
 30
0.000001
 40
2.0
  1
30
 50
30.0
  7
Style-Arial
100
AcDbText
  0
TEXT
  5
4115
330
44B0
100
AcDbEntity
  8
Punktnummer
  6
DGN Style 1
 62
     7
370
     0
100
AcDbText
 10
-251326.995286
 20
150404.765467
 30
0.000001
 40
2.0
  1
29
 50
30.0
  7
Style-Arial
100
AcDbText
  0
TEXT
  5
40FE
330
44B0
100
AcDbEntity
  8
Punktnummer
  6
DGN Style 1
 62
     7
370
     0
100
AcDbText
 10
-251442.417192
 20
150349.607788
 30
0.000001
 40
2.0
  1
6
 50
30.0
  7
Style-Arial
100
AcDbText
  0
TEXT
  5
40FD
330
44B0
100
AcDbEntity
  8
Punktnummer
  6
DGN Style 1
 62
     7
370
     0
100
AcDbText
 10
-251467.735846
 20
150336.40253
 30
0.000001
 40
2.0
  1
5
 50
30.0
  7
Style-Arial
100
AcDbText
  0
TEXT
  5
4100
330
44B0
100
AcDbEntity
  8
Punktnummer
  6
DGN Style 1
 62
     7
370
     0
100
AcDbText
 10
-251441.759954
 20
150370.126878
 30
0.000001
 40
2.0
  1
8
 50
30.0
  7
Style-Arial
100
AcDbText
  0
TEXT
  5
40FF
330
44B0
100
AcDbEntity
  8
Punktnummer
  6
DGN Style 1
 62
     7
370
     0
100
AcDbText
 10
-251433.561125
 20
150353.524122
 30
0.000001
 40
2.0
  1
7
 50
30.0
  7
Style-Arial
100
AcDbText
  0
TEXT
  5
40FA
330
44B0
100
AcDbEntity
  8
Punktnummer
  6
DGN Style 1
 62
     7
370
     0
100
AcDbText
 10
-251427.615315
 20
150321.759778
 30
0.000001
 40
2.0
  1
2
 50
30.0
  7
Style-Arial
100
AcDbText
  0
TEXT
  5
40F8
330
44B0
100
AcDbEntity
  8
Punktnummer
  6
DGN Style 1
 62
     7
370
     0
100
AcDbText
 10
-251450.437629
 20
150310.616572
 30
0.000001
 40
2.0
  1
1
 50
30.0
  7
Style-Arial
100
AcDbText
  0
TEXT
  5
40FC
330
44B0
100
AcDbEntity
  8
Punktnummer
  6
DGN Style 1
 62
     7
370
     0
100
AcDbText
 10
-251409.896084
 20
150300.712768
 30
0.000001
 40
2.0
  1
4
 50
30.0
  7
Style-Arial
100
AcDbText
  0
TEXT
  5
40FB
330
44B0
100
AcDbEntity
  8
Punktnummer
  6
DGN Style 1
 62
     7
370
     0
100
AcDbText
 10
-251419.945741
 20
150324.924154
 30
0.000001
 40
2.0
  1
3
 50
30.0
  7
Style-Arial
100
AcDbText
  0
TEXT
  5
4101
330
44B0
100
AcDbEntity
  8
Punktnummer
  6
DGN Style 1
 62
     7
370
     0
100
AcDbText
 10
-251477.669858
 20
150352.658771
 30
0.000001
 40
2.0
  1
9
 50
30.0
  7
Style-Arial
100
AcDbText
  0
TEXT
  5
4107
330
44B0
100
AcDbEntity
  8
Punktnummer
  6
DGN Style 1
 62
     7
370
     0
100
AcDbText
 10
-251358.859581
 20
150371.697033
 30
0.000001
 40
2.0
  1
15
 50
30.0
  7
Style-Arial
100
AcDbText
  0
TEXT
  5
4106
330
44B0
100
AcDbEntity
  8
Punktnummer
  6
DGN Style 1
 62
     7
370
     0
100
AcDbText
 10
-251380.163676
 20
150400.360498
 30
0.000001
 40
2.0
  1
14
 50
30.0
  7
Style-Arial
100
AcDbText
  0
TEXT
  5
4109
330
44B0
100
AcDbEntity
  8
Punktnummer
  6
DGN Style 1
 62
     7
370
     0
100
AcDbText
 10
-251352.941491
 20
150357.257923
 30
0.000002
 40
2.0
  1
17
 50
30.0
  7
Style-Arial
100
AcDbText
  0
TEXT
  5
4108
330
44B0
100
AcDbEntity
  8
Punktnummer
  6
DGN Style 1
 62
     7
370
     0
100
AcDbText
 10
-251356.785573
 20
150368.418873
 30
0.000001
 40
2.0
  1
16
 50
30.0
  7
Style-Arial
100
AcDbText
  0
TEXT
  5
4103
330
44B0
100
AcDbEntity
  8
Punktnummer
  6
DGN Style 1
 62
     7
370
     0
100
AcDbText
 10
-251411.238421
 20
150358.343649
 30
0.000001
 40
2.0
  1
11
 50
30.0
  7
Style-Arial
100
AcDbText
  0
TEXT
  5
4102
330
44B0
100
AcDbEntity
  8
Punktnummer
  6
DGN Style 1
 62
     7
370
     0
100
AcDbText
 10
-251412.662467
 20
150385.194421
 30
0.000001
 40
2.0
  1
10
 50
30.0
  7
Style-Arial
100
AcDbText
  0
TEXT
  5
4105
330
44B0
100
AcDbEntity
  8
Punktnummer
  6
DGN Style 1
 62
     7
370
     0
100
AcDbText
 10
-251426.813336
 20
150345.614725
 30
0.000001
 40
2.0
  1
13
 50
30.0
  7
Style-Arial
100
AcDbText
  0
TEXT
  5
4104
330
44B0
100
AcDbEntity
  8
Punktnummer
  6
DGN Style 1
 62
     7
370
     0
100
AcDbText
 10
-251408.905135
 20
150364.548994
 30
0.000001
 40
2.0
  1
12
 50
30.0
  7
Style-Arial
100
AcDbText
  0
TEXT
  5
4131
330
44B0
100
AcDbEntity
  8
Punktnummer
  6
DGN Style 1
 62
     7
370
     0
100
AcDbText
 10
-251138.888538
 20
150490.771414
 30
0.000001
 40
2.0
  1
57
 50
30.0
  7
Style-Arial
100
AcDbText
  0
TEXT
  5
4130
330
44B0
100
AcDbEntity
  8
Punktnummer
  6
DGN Style 1
 62
     7
370
     0
100
AcDbText
 10
-251152.233895
 20
150510.403048
 30
0.000001
 40
2.0
  1
56
 50
30.0
  7
Style-Arial
100
AcDbText
  0
TEXT
  5
4133
330
44B0
100
AcDbEntity
  8
Punktnummer
  6
DGN Style 1
 62
     7
370
     0
100
AcDbText
 10
-251196.071259
 20
150517.211022
 30
0.000001
 40
2.0
  1
59
 50
30.0
  7
Style-Arial
100
AcDbText
  0
TEXT
  5
4132
330
44B0
100
AcDbEntity
  8
Punktnummer
  6
DGN Style 1
 62
     7
370
     0
100
AcDbText
 10
-251167.672482
 20
150533.679994
 30
0.000001
 40
2.0
  1
58
 50
30.0
  7
Style-Arial
100
AcDbText
  0
TEXT
  5
412D
330
44B0
100
AcDbEntity
  8
Punktnummer
  6
DGN Style 1
 62
     7
370
     0
100
AcDbText
 10
-251188.620039
 20
150487.305945
 30
0.000002
 40
2.0
  1
53
 50
30.0
  7
Style-Arial
100
AcDbText
  0
TEXT
  5
412C
330
44B0
100
AcDbEntity
  8
Punktnummer
  6
DGN Style 1
 62
     7
370
     0
100
AcDbText
 10
-251181.359947
 20
150485.481724
 30
0.000001
 40
2.0
  1
52
 50
30.0
  7
Style-Arial
100
AcDbText
  0
TEXT
  5
412F
330
44B0
100
AcDbEntity
  8
Punktnummer
  6
DGN Style 1
 62
     7
370
     0
100
AcDbText
 10
-251176.593392
 20
150489.102552
 30
0.000001
 40
2.0
  1
55
 50
30.0
  7
Style-Arial
100
AcDbText
  0
TEXT
  5
412E
330
44B0
100
AcDbEntity
  8
Punktnummer
  6
DGN Style 1
 62
     7
370
     0
100
AcDbText
 10
-251194.662651
 20
150487.562402
 30
0.000001
 40
2.0
  1
54
 50
30.0
  7
Style-Arial
100
AcDbText
  0
TEXT
  5
4134
330
44B0
100
AcDbEntity
  8
Punktnummer
  6
DGN Style 1
 62
     7
370
     0
100
AcDbText
 10
-251201.550497
 20
150513.174215
 30
0.000001
 40
2.0
  1
60
 50
30.0
  7
Style-Arial
100
AcDbText
  0
TEXT
  5
413A
330
44B0
100
AcDbEntity
  8
Punktnummer
  6
DGN Style 1
 62
     7
370
     0
100
AcDbText
 10
-251223.187952
 20
150482.958375
 30
0.000001
 40
2.0
  1
66
 50
30.0
  7
Style-Arial
100
AcDbText
  0
TEXT
  5
4139
330
44B0
100
AcDbEntity
  8
Punktnummer
  6
DGN Style 1
 62
     7
370
     0
100
AcDbText
 10
-251229.971566
 20
150483.935509
 30
0.000001
 40
2.0
  1
65
 50
30.0
  7
Style-Arial
100
AcDbText
  0
TEXT
  5
413C
330
44B0
100
AcDbEntity
  8
Punktnummer
  6
DGN Style 1
 62
     7
370
     0
100
AcDbText
 10
-251203.088388
 20
150536.598738
 30
0.000001
 40
2.0
  1
68
 50
30.0
  7
Style-Arial
100
AcDbText
  0
TEXT
  5
413B
330
44B0
100
AcDbEntity
  8
Punktnummer
  6
DGN Style 1
 62
     7
370
     0
100
AcDbText
 10
-251175.064006
 20
150545.374856
 30
0.000001
 40
2.0
  1
67
 50
30.0
  7
Style-Arial
100
AcDbText
  0
TEXT
  5
4136
330
44B0
100
AcDbEntity
  8
Punktnummer
  6
DGN Style 1
 62
     7
370
     0
100
AcDbText
 10
-251229.289991
 20
150500.597763
 30
0.000001
 40
2.0
  1
62
 50
30.0
  7
Style-Arial
100
AcDbText
  0
TEXT
  5
4135
330
44B0
100
AcDbEntity
  8
Punktnummer
  6
DGN Style 1
 62
     7
370
     0
100
AcDbText
 10
-251205.56644
 20
150519.981736
 30
0.000001
 40
2.0
  1
61
 50
30.0
  7
Style-Arial
100
AcDbText
  0
TEXT
  5
4138
330
44B0
100
AcDbEntity
  8
Punktnummer
  6
DGN Style 1
 62
     7
370
     0
100
AcDbText
 10
-251234.921232
 20
150492.018189
 30
0.000001
 40
2.0
  1
64
 50
30.0
  7
Style-Arial
100
AcDbText
  0
TEXT
  5
4137
330
44B0
100
AcDbEntity
  8
Punktnummer
  6
DGN Style 1
 62
     7
370
     0
100
AcDbText
 10
-251235.793437
 20
150499.859175
 30
0.000001
 40
2.0
  1
63
 50
30.0
  7
Style-Arial
100
AcDbText
  0
TEXT
  5
4120
330
44B0
100
AcDbEntity
  8
Punktnummer
  6
DGN Style 1
 62
     7
370
     0
100
AcDbText
 10
-251275.435855
 20
150437.003099
 30
0.000001
 40
2.0
  1
40
 50
30.0
  7
Style-Arial
100
AcDbText
  0
TEXT
  5
411F
330
44B0
100
AcDbEntity
  8
Punktnummer
  6
DGN Style 1
 62
     7
370
     0
100
AcDbText
 10
-251315.778707
 20
150432.038448
 30
0.000001
 40
2.0
  1
39
 50
30.0
  7
Style-Arial
100
AcDbText
  0
TEXT
  5
4122
330
44B0
100
AcDbEntity
  8
Punktnummer
  6
DGN Style 1
 62
     7
370
     0
100
AcDbText
 10
-251279.147183
 20
150447.828105
 30
0.000001
 40
2.0
  1
42
 50
30.0
  7
Style-Arial
100
AcDbText
  0
TEXT
  5
4121
330
44B0
100
AcDbEntity
  8
Punktnummer
  6
DGN Style 1
 62
     7
370
     0
100
AcDbText
 10
-251274.089876
 20
150443.532252
 30
0.000001
 40
2.0
  1
41
 50
30.0
  7
Style-Arial
100
AcDbText
  0
TEXT
  5
411C
330
44B0
100
AcDbEntity
  8
Punktnummer
  6
DGN Style 1
 62
     7
370
     0
100
AcDbText
 10
-251249.030825
 20
150414.455317
 30
0.000001
 40
2.0
  1
36
 50
30.0
  7
Style-Arial
100
AcDbText
  0
TEXT
  5
411B
330
44B0
100
AcDbEntity
  8
Punktnummer
  6
DGN Style 1
 62
     7
370
     0
100
AcDbText
 10
-251261.481523
 20
150424.267015
 30
0.000001
 40
2.0
  1
35
 50
30.0
  7
Style-Arial
100
AcDbText
  0
TEXT
  5
411E
330
44B0
100
AcDbEntity
  8
Punktnummer
  6
DGN Style 1
 62
     7
370
     0
100
AcDbText
 10
-251289.776494
 20
150387.582785
 30
0.000001
 40
2.0
  1
38
 50
30.0
  7
Style-Arial
100
AcDbText
  0
TEXT
  5
411D
330
44B0
100
AcDbEntity
  8
Punktnummer
  6
DGN Style 1
 62
     7
370
     0
100
AcDbText
 10
-251282.893497
 20
150393.512753
 30
0.000001
 40
2.0
  1
37
 50
30.0
  7
Style-Arial
100
AcDbText
  0
TEXT
  5
4123
330
44B0
100
AcDbEntity
  8
Punktnummer
  6
DGN Style 1
 62
     7
370
     0
100
AcDbText
 10
-251293.391305
 20
150442.94859
 30
0.000001
 40
2.0
  1
43
 50
30.0
  7
Style-Arial
100
AcDbText
  0
TEXT
  5
4129
330
44B0
100
AcDbEntity
  8
Punktnummer
  6
DGN Style 1
 62
     7
370
     0
100
AcDbText
 10
-251213.285625
 20
150474.544077
 30
0.000001
 40
2.0
  1
49
 50
30.0
  7
Style-Arial
100
AcDbText
  0
TEXT
  5
4128
330
44B0
100
AcDbEntity
  8
Punktnummer
  6
DGN Style 1
 62
     7
370
     0
100
AcDbText
 10
-251235.366014
 20
150459.719847
 30
0.000001
 40
2.0
  1
48
 50
30.0
  7
Style-Arial
100
AcDbText
  0
TEXT
  5
412B
330
44B0
100
AcDbEntity
  8
Punktnummer
  6
DGN Style 1
 62
     7
370
     0
100
AcDbText
 10
-251171.051956
 20
150470.474429
 30
0.000001
 40
2.0
  1
51
 50
30.0
  7
Style-Arial
100
AcDbText
  0
TEXT
  5
412A
330
44B0
100
AcDbEntity
  8
Punktnummer
  6
DGN Style 1
 62
     7
370
     0
100
AcDbText
 10
-251200.398476
 20
150450.001211
 30
0.000001
 40
2.0
  1
50
 50
30.0
  7
Style-Arial
100
AcDbText
  0
TEXT
  5
4125
330
44B0
100
AcDbEntity
  8
Punktnummer
  6
DGN Style 1
 62
     7
370
     0
100
AcDbText
 10
-251254.989521
 20
150438.580402
 30
0.000001
 40
2.0
  1
45
 50
30.0
  7
Style-Arial
100
AcDbText
  0
TEXT
  5
4124
330
44B0
100
AcDbEntity
  8
Punktnummer
  6
DGN Style 1
 62
     7
370
     0
100
AcDbText
 10
-251254.022508
 20
150446.854234
 30
0.000001
 40
2.0
  1
44
 50
30.0
  7
Style-Arial
100
AcDbText
  0
TEXT
  5
4127
330
44B0
100
AcDbEntity
  8
Punktnummer
  6
DGN Style 1
 62
     7
370
     0
100
AcDbText
 10
-251219.936574
 20
150437.240568
 30
0.000001
 40
2.0
  1
47
 50
30.0
  7
Style-Arial
100
AcDbText
  0
TEXT
  5
4126
330
44B0
100
AcDbEntity
  8
Punktnummer
  6
DGN Style 1
 62
     7
370
     0
100
AcDbText
 10
-251246.096694
 20
150418.021519
 30
0.000001
 40
2.0
  1
46
 50
30.0
  7
Style-Arial
100
AcDbText
  0
TEXT
  5
3FC0
330
44B0
100
AcDbEntity
  8
Måleblad tekst kursiv 0_15
  6
Continuous
 62
     7
370
     0
100
AcDbText
 10
-251424.357705
 20
150358.368422
 30
0.0
 40
3.0
  1
927 m²
 50
30.0
  7
Style-Arial Narrow
 72
     1
 11
-251420.476005
 21
150362.341573
 31
0.0
100
AcDbText
 73
     2
  0
TEXT
  5
3FC6
330
44B0
100
AcDbEntity
  8
Måleblad tekst kursiv 0_15
  6
Continuous
 62
     7
370
     0
100
AcDbText
 10
-251455.579042
 20
150348.049864
 30
0.0
 40
3.0
  1
882 m²
 50
30.0
  7
Style-Arial Narrow
 72
     1
 11
-251451.697342
 21
150352.023016
 31
0.0
100
AcDbText
 73
     2
  0
TEXT
  5
3FCB
330
44B0
100
AcDbEntity
  8
Måleblad tekst kursiv 0_15
  6
Continuous
 62
     7
370
     0
100
AcDbText
 10
-251447.044404
 20
150323.805548
 30
0.0
 40
3.0
  1
849 m²
 50
30.0
  7
Style-Arial Narrow
 72
     1
 11
-251443.162704
 21
150327.778699
 31
0.0
100
AcDbText
 73
     2
  0
TEXT
  5
3FD0
330
44B0
100
AcDbEntity
  8
Måleblad tekst kursiv 0_15
  6
Continuous
 62
     7
370
     0
100
AcDbText
 10
-251414.164888
 20
150323.634152
 30
0.0
 40
3.0
  1
883 m²
 50
30.0
  7
Style-Arial Narrow
 72
     1
 11
-251410.283188
 21
150327.607303
 31
0.0
100
AcDbText
 73
     2
  0
TEXT
  5
3FD5
330
44B0
100
AcDbEntity
  8
Måleblad tekst kursiv 0_15
  6
Continuous
 62
     7
370
     0
100
AcDbText
 10
-251429.789256
 20
150297.841306
 30
0.0
 40
3.0
  1
822 m²
 50
30.0
  7
Style-Arial Narrow
 72
     1
 11
-251425.907556
 21
150301.814457
 31
0.0
100
AcDbText
 73
     2
  0
TEXT
  5
3FDA
330
44B0
100
AcDbEntity
  8
Måleblad tekst kursiv 0_15
  6
Continuous
 62
     7
370
     0
100
AcDbText
 10
-251337.099784
 20
150361.773124
 30
0.0
 40
3.0
  1
923 m²
 50
30.0
  7
Style-Arial Narrow
 72
     1
 11
-251333.218084
 21
150365.746276
 31
0.0
100
AcDbText
 73
     2
  0
TEXT
  5
3FDF
330
44B0
100
AcDbEntity
  8
Måleblad tekst kursiv 0_15
  6
Continuous
 62
     7
370
     0
100
AcDbText
 10
-251351.95999
 20
150388.827936
 30
0.0
 40
3.0
  1
1044 m²
 50
30.0
  7
Style-Arial Narrow
 72
     1
 11
-251347.250662
 21
150393.278919
 31
0.0
100
AcDbText
 73
     2
  0
TEXT
  5
3FE4
330
44B0
100
AcDbEntity
  8
Måleblad tekst kursiv 0_15
  6
Continuous
 62
     7
370
     0
100
AcDbText
 10
-251323.006361
 20
150409.049669
 30
0.0
 40
3.0
  1
818 m²
 50
30.0
  7
Style-Arial Narrow
 72
     1
 11
-251319.124661
 21
150413.02282
 31
0.0
100
AcDbText
 73
     2
  0
TEXT
  5
3FE9
330
44B0
100
AcDbEntity
  8
Måleblad tekst kursiv 0_15
  6
Continuous
 62
     7
370
     0
100
AcDbText
 10
-251301.930476
 20
150384.311725
 30
0.0
 40
3.0
  1
854 m²
 50
30.0
  7
Style-Arial Narrow
 72
     1
 11
-251298.048776
 21
150388.284877
 31
0.0
100
AcDbText
 73
     2
  0
TEXT
  5
3FEE
330
44B0
100
AcDbEntity
  8
Måleblad tekst kursiv 0_15
  6
Continuous
 62
     7
370
     0
100
AcDbText
 10
-251275.74561
 20
150402.638334
 30
0.0
 40
3.0
  1
897 m²
 50
30.0
  7
Style-Arial Narrow
 72
     1
 11
-251271.86391
 21
150406.611485
 31
0.0
100
AcDbText
 73
     2
  0
TEXT
  5
3FF3
330
44B0
100
AcDbEntity
  8
Måleblad tekst kursiv 0_15
  6
Continuous
 62
     7
370
     0
100
AcDbText
 10
-251296.063531
 20
150426.01393
 30
0.0
 40
3.0
  1
829 m²
 50
30.0
  7
Style-Arial Narrow
 72
     1
 11
-251292.181831
 21
150429.987081
 31
0.0
100
AcDbText
 73
     2
  0
TEXT
  5
3FF8
330
44B0
100
AcDbEntity
  8
Måleblad tekst kursiv 0_15
  6
Continuous
 62
     7
370
     0
100
AcDbText
 10
-251239.189952
 20
150434.707242
 30
0.0
 40
3.0
  1
873 m²
 50
30.0
  7
Style-Arial Narrow
 72
     1
 11
-251235.308252
 21
150438.680393
 31
0.0
100
AcDbText
 73
     2
  0
TEXT
  5
3FFD
330
44B0
100
AcDbEntity
  8
Måleblad tekst kursiv 0_15
  6
Continuous
 62
     7
370
     0
100
AcDbText
 10
-251218.288989
 20
150447.84387
 30
0.0
 40
3.0
  1
865 m²
 50
30.0
  7
Style-Arial Narrow
 72
     1
 11
-251214.407288
 21
150451.817021
 31
0.0
100
AcDbText
 73
     2
  0
TEXT
  5
4002
330
44B0
100
AcDbEntity
  8
Måleblad tekst kursiv 0_15
  6
Continuous
 62
     7
370
     0
100
AcDbText
 10
-251192.778663
 20
150463.639704
 30
0.0
 40
3.0
  1
990 m²
 50
30.0
  7
Style-Arial Narrow
 72
     1
 11
-251188.896963
 21
150467.612855
 31
0.0
100
AcDbText
 73
     2
  0
TEXT
  5
4007
330
44B0
100
AcDbEntity
  8
Måleblad tekst kursiv 0_15
  6
Continuous
 62
     7
370
     0
100
AcDbText
 10
-251163.183222
 20
150482.826573
 30
0.0
 40
3.0
  1
882 m²
 50
30.0
  7
Style-Arial Narrow
 72
     1
 11
-251159.301522
 21
150486.799725
 31
0.0
100
AcDbText
 73
     2
  0
TEXT
  5
400C
330
44B0
100
AcDbEntity
  8
Måleblad tekst kursiv 0_15
  6
Continuous
 62
     7
370
     0
100
AcDbText
 10
-251174.470642
 20
150504.419531
 30
0.0
 40
3.0
  1
890 m²
 50
30.0
  7
Style-Arial Narrow
 72
     1
 11
-251170.588942
 21
150508.392682
 31
0.0
100
AcDbText
 73
     2
  0
TEXT
  5
4011
330
44B0
100
AcDbEntity
  8
Måleblad tekst kursiv 0_15
  6
Continuous
 62
     7
370
     0
100
AcDbText
 10
-251192.756984
 20
150522.967922
 30
0.0
 40
3.0
  1
918 m²
 50
30.0
  7
Style-Arial Narrow
 72
     1
 11
-251188.875284
 21
150526.941074
 31
0.0
100
AcDbText
 73
     2
  0
TEXT
  5
4016
330
44B0
100
AcDbEntity
  8
Måleblad tekst kursiv 0_15
  6
Continuous
 62
     7
370
     0
100
AcDbText
 10
-251228.905675
 20
150514.10706
 30
0.0
 40
3.0
  1
838 m²
 50
30.0
  7
Style-Arial Narrow
 72
     1
 11
-251225.023975
 21
150518.080211
 31
0.0
100
AcDbText
 73
     2
  0
TEXT
  5
401B
330
44B0
100
AcDbEntity
  8
Måleblad tekst kursiv 0_15
  6
Continuous
 62
     7
370
     0
100
AcDbText
 10
-251260.376389
 20
150501.206573
 30
0.0
 40
3.0
  1
887 m²
 50
30.0
  7
Style-Arial Narrow
 72
     1
 11
-251256.494689
 21
150505.179724
 31
0.0
100
AcDbText
 73
     2
  0
TEXT
  5
4020
330
44B0
100
AcDbEntity
  8
Måleblad tekst kursiv 0_15
  6
Continuous
 62
     7
370
     0
100
AcDbText
 10
-251281.724418
 20
150486.144983
 30
0.0
 40
3.0
  1
1011 m²
 50
30.0
  7
Style-Arial Narrow
 72
     1
 11
-251277.015091
 21
150490.595965
 31
0.0
100
AcDbText
 73
     2
  0
TEXT
  5
4025
330
44B0
100
AcDbEntity
  8
Måleblad tekst kursiv 0_15
  6
Continuous
 62
     7
370
     0
100
AcDbText
 10
-251214.993763
 20
150493.074768
 30
0.0
 40
3.0
  1
874 m²
 50
30.0
  7
Style-Arial Narrow
 72
     1
 11
-251211.112063
 21
150497.047919
 31
0.0
100
AcDbText
 73
     2
  0
TEXT
  5
402A
330
44B0
100
AcDbEntity
  8
Måleblad tekst kursiv 0_15
  6
Continuous
 62
     7
370
     0
100
AcDbText
 10
-251255.905379
 20
150463.840316
 30
0.0
 40
3.0
  1
847 m²
 50
30.0
  7
Style-Arial Narrow
 72
     1
 11
-251252.023679
 21
150467.813468
 31
0.0
100
AcDbText
 73
     2
  0
CIRCLE
  5
4296
330
44B0
100
AcDbEntity
  8
Måleblad fuld 0_15
  6
Continuous
 62
     7
370
     0
100
AcDbCircle
 10
-251422.938599
 20
150368.595283
 30
0.0
 40
3.75
  0
CIRCLE
  5
4298
330
44B0
100
AcDbEntity
  8
Måleblad fuld 0_15
  6
Continuous
 62
     7
370
     0
100
AcDbCircle
 10
-251454.797521
 20
150358.502939
 30
0.0
 40
3.75
  0
CIRCLE
  5
429A
330
44B0
100
AcDbEntity
  8
Måleblad fuld 0_15
  6
Continuous
 62
     7
370
     0
100
AcDbCircle
 10
-251447.676867
 20
150335.426157
 30
0.0
 40
3.75
  0
CIRCLE
  5
429C
330
44B0
100
AcDbEntity
  8
Måleblad fuld 0_15
  6
Continuous
 62
     7
370
     0
100
AcDbCircle
 10
-251411.462647
 20
150334.513421
 30
0.0
 40
3.75
  0
CIRCLE
  5
429E
330
44B0
100
AcDbEntity
  8
Måleblad fuld 0_15
  6
Continuous
 62
     7
370
     0
100
AcDbCircle
 10
-251430.952521
 20
150306.857626
 30
0.0
 40
3.75
  0
CIRCLE
  5
42A0
330
44B0
100
AcDbEntity
  8
Måleblad fuld 0_15
  6
Continuous
 62
     7
370
     0
100
AcDbCircle
 10
-251335.873235
 20
150371.595526
 30
0.0
 40
3.75
  0
CIRCLE
  5
42A2
330
44B0
100
AcDbEntity
  8
Måleblad fuld 0_15
  6
Continuous
 62
     7
370
     0
100
AcDbCircle
 10
-251351.89874
 20
150401.394924
 30
0.0
 40
3.75
  0
CIRCLE
  5
42A4
330
44B0
100
AcDbEntity
  8
Måleblad fuld 0_15
  6
Continuous
 62
     7
370
     0
100
AcDbCircle
 10
-251323.225429
 20
150419.085958
 30
0.0
 40
3.75
  0
CIRCLE
  5
42A6
330
44B0
100
AcDbEntity
  8
Måleblad fuld 0_15
  6
Continuous
 62
     7
370
     0
100
AcDbCircle
 10
-251300.983183
 20
150394.048981
 30
0.0
 40
3.75
  0
CIRCLE
  5
42A8
330
44B0
100
AcDbEntity
  8
Måleblad fuld 0_15
  6
Continuous
 62
     7
370
     0
100
AcDbCircle
 10
-251277.30709
 20
150413.690841
 30
0.0
 40
3.75
  0
CIRCLE
  5
42AA
330
44B0
100
AcDbEntity
  8
Måleblad fuld 0_15
  6
Continuous
 62
     7
370
     0
100
AcDbCircle
 10
-251297.150447
 20
150436.225185
 30
0.0
 40
3.75
  0
CIRCLE
  5
42AC
330
44B0
100
AcDbEntity
  8
Måleblad fuld 0_15
  6
Continuous
 62
     7
370
     0
100
AcDbCircle
 10
-251239.676054
 20
150444.441747
 30
0.0
 40
3.75
  0
CIRCLE
  5
42AE
330
44B0
100
AcDbEntity
  8
Måleblad fuld 0_15
  6
Continuous
 62
     7
370
     0
100
AcDbCircle
 10
-251218.32962
 20
150459.000222
 30
0.0
 40
3.75
  0
CIRCLE
  5
42B0
330
44B0
100
AcDbEntity
  8
Måleblad fuld 0_15
  6
Continuous
 62
     7
370
     0
100
AcDbCircle
 10
-251194.54056
 20
150475.71059
 30
0.0
 40
3.75
  0
CIRCLE
  5
42B2
330
44B0
100
AcDbEntity
  8
Måleblad fuld 0_15
  6
Continuous
 62
     7
370
     0
100
AcDbCircle
 10
-251163.060167
 20
150493.716078
 30
0.0
 40
3.75
  0
CIRCLE
  5
42B4
330
44B0
100
AcDbEntity
  8
Måleblad fuld 0_15
  6
Continuous
 62
     7
370
     0
100
AcDbCircle
 10
-251175.983532
 20
150516.016401
 30
0.0
 40
3.75
  0
CIRCLE
  5
42B6
330
44B0
100
AcDbEntity
  8
Måleblad fuld 0_15
  6
Continuous
 62
     7
370
     0
100
AcDbCircle
 10
-251192.816416
 20
150532.905143
 30
0.0
 40
3.75
  0
CIRCLE
  5
42B8
330
44B0
100
AcDbEntity
  8
Måleblad fuld 0_15
  6
Continuous
 62
     7
370
     0
100
AcDbCircle
 10
-251229.446746
 20
150522.759696
 30
0.0
 40
3.75
  0
CIRCLE
  5
42BA
330
44B0
100
AcDbEntity
  8
Måleblad fuld 0_15
  6
Continuous
 62
     7
370
     0
100
AcDbCircle
 10
-251261.540218
 20
150512.353044
 30
0.0
 40
3.75
  0
CIRCLE
  5
42BC
330
44B0
100
AcDbEntity
  8
Måleblad fuld 0_15
  6
Continuous
 62
     7
370
     0
100
AcDbCircle
 10
-251281.490189
 20
150497.957702
 30
0.0
 40
3.75
  0
CIRCLE
  5
42BE
330
44B0
100
AcDbEntity
  8
Måleblad fuld 0_15
  6
Continuous
 62
     7
370
     0
100
AcDbCircle
 10
-251217.617619
 20
150504.218481
 30
0.0
 40
3.75
  0
CIRCLE
  5
42C0
330
44B0
100
AcDbEntity
  8
Måleblad fuld 0_15
  6
Continuous
 62
     7
370
     0
100
AcDbCircle
 10
-251257.076492
 20
150475.388591
 30
0.0
 40
3.75
  0
TEXT
  5
4295
330
44B0
100
AcDbEntity
  8
Måleblad tekst kursiv 0_15
  6
Continuous
 62
     7
370
     0
100
AcDbText
 10
-251422.988184
 20
150366.554079
 30
0.0
 40
3.75
  1
5
 50
30.0
  7
Style-Arial Narrow
100
AcDbText
  0
TEXT
  5
4297
330
44B0
100
AcDbEntity
  8
Måleblad tekst kursiv 0_15
  6
Continuous
 62
     7
370
     0
100
AcDbText
 10
-251455.299831
 20
150356.549464
 30
0.0
 40
3.75
  1
4
 50
30.0
  7
Style-Arial Narrow
100
AcDbText
  0
TEXT
  5
4299
330
44B0
100
AcDbEntity
  8
Måleblad tekst kursiv 0_15
  6
Continuous
 62
     7
370
     0
100
AcDbText
 10
-251447.801068
 20
150333.497976
 30
0.0
 40
3.75
  1
3
 50
30.0
  7
Style-Arial Narrow
100
AcDbText
  0
TEXT
  5
429B
330
44B0
100
AcDbEntity
  8
Måleblad tekst kursiv 0_15
  6
Continuous
 62
     7
370
     0
100
AcDbText
 10
-251411.527284
 20
150332.144403
 30
0.0
 40
3.75
  1
1
 50
30.0
  7
Style-Arial Narrow
100
AcDbText
  0
TEXT
  5
429D
330
44B0
100
AcDbEntity
  8
Måleblad tekst kursiv 0_15
  6
Continuous
 62
     7
370
     0
100
AcDbText
 10
-251431.023569
 20
150305.088988
 30
0.0
 40
3.75
  1
2
 50
30.0
  7
Style-Arial Narrow
100
AcDbText
  0
TEXT
  5
429F
330
44B0
100
AcDbEntity
  8
Måleblad tekst kursiv 0_15
  6
Continuous
 62
     7
370
     0
100
AcDbText
 10
-251337.224867
 20
150368.603721
 30
0.0
 40
3.75
  1
11
 50
30.0
  7
Style-Arial Narrow
100
AcDbText
  0
TEXT
  5
42A1
330
44B0
100
AcDbEntity
  8
Måleblad tekst kursiv 0_15
  6
Continuous
 62
     7
370
     0
100
AcDbText
 10
-251351.854552
 20
150399.155536
 30
0.0
 40
3.75
  1
6
 50
30.0
  7
Style-Arial Narrow
100
AcDbText
  0
TEXT
  5
42A3
330
44B0
100
AcDbEntity
  8
Måleblad tekst kursiv 0_15
  6
Continuous
 62
     7
370
     0
100
AcDbText
 10
-251323.243323
 20
150416.945052
 30
0.0
 40
3.75
  1
7
 50
30.0
  7
Style-Arial Narrow
100
AcDbText
  0
TEXT
  5
42A5
330
44B0
100
AcDbEntity
  8
Måleblad tekst kursiv 0_15
  6
Continuous
 62
     7
370
     0
100
AcDbText
 10
-251302.467698
 20
150391.336377
 30
0.0
 40
3.75
  1
10
 50
30.0
  7
Style-Arial Narrow
100
AcDbText
  0
TEXT
  5
42A7
330
44B0
100
AcDbEntity
  8
Måleblad tekst kursiv 0_15
  6
Continuous
 62
     7
370
     0
100
AcDbText
 10
-251277.369708
 20
150411.732707
 30
0.0
 40
3.75
  1
9
 50
30.0
  7
Style-Arial Narrow
100
AcDbText
  0
TEXT
  5
42A9
330
44B0
100
AcDbEntity
  8
Måleblad tekst kursiv 0_15
  6
Continuous
 62
     7
370
     0
100
AcDbText
 10
-251297.221495
 20
150434.297004
 30
0.0
 40
3.75
  1
8
 50
30.0
  7
Style-Arial Narrow
100
AcDbText
  0
TEXT
  5
42AB
330
44B0
100
AcDbEntity
  8
Måleblad tekst kursiv 0_15
  6
Continuous
 62
     7
370
     0
100
AcDbText
 10
-251240.868225
 20
150441.769029
 30
0.0
 40
3.75
  1
22
 50
30.0
  7
Style-Arial Narrow
100
AcDbText
  0
TEXT
  5
42AD
330
44B0
100
AcDbEntity
  8
Måleblad tekst kursiv 0_15
  6
Continuous
 62
     7
370
     0
100
AcDbText
 10
-251219.362331
 20
150456.008418
 30
0.0
 40
3.75
  1
21
 50
30.0
  7
Style-Arial Narrow
100
AcDbText
  0
TEXT
  5
42AF
330
44B0
100
AcDbEntity
  8
Måleblad tekst kursiv 0_15
  6
Continuous
 62
     7
370
     0
100
AcDbText
 10
-251195.626424
 20
150472.93151
 30
0.0
 40
3.75
  1
20
 50
30.0
  7
Style-Arial Narrow
100
AcDbText
  0
TEXT
  5
42B1
330
44B0
100
AcDbEntity
  8
Måleblad tekst kursiv 0_15
  6
Continuous
 62
     7
370
     0
100
AcDbText
 10
-251164.518106
 20
150491.096542
 30
0.0
 40
3.75
  1
19
 50
30.0
  7
Style-Arial Narrow
100
AcDbText
  0
TEXT
  5
42B3
330
44B0
100
AcDbEntity
  8
Måleblad tekst kursiv 0_15
  6
Continuous
 62
     7
370
     0
100
AcDbText
 10
-251177.654085
 20
150513.117663
 30
0.0
 40
3.75
  1
18
 50
30.0
  7
Style-Arial Narrow
100
AcDbText
  0
TEXT
  5
42B5
330
44B0
100
AcDbEntity
  8
Måleblad tekst kursiv 0_15
  6
Continuous
 62
     7
370
     0
100
AcDbText
 10
-251194.021876
 20
150529.820272
 30
0.0
 40
3.75
  1
17
 50
30.0
  7
Style-Arial Narrow
100
AcDbText
  0
TEXT
  5
42B7
330
44B0
100
AcDbEntity
  8
Måleblad tekst kursiv 0_15
  6
Continuous
 62
     7
370
     0
100
AcDbText
 10
-251230.627924
 20
150519.767472
 30
0.0
 40
3.75
  1
15
 50
30.0
  7
Style-Arial Narrow
100
AcDbText
  0
TEXT
  5
42B9
330
44B0
100
AcDbEntity
  8
Måleblad tekst kursiv 0_15
  6
Continuous
 62
     7
370
     0
100
AcDbText
 10
-251262.652659
 20
150509.361239
 30
0.0
 40
3.75
  1
14
 50
30.0
  7
Style-Arial Narrow
100
AcDbText
  0
TEXT
  5
42BB
330
44B0
100
AcDbEntity
  8
Måleblad tekst kursiv 0_15
  6
Continuous
 62
     7
370
     0
100
AcDbText
 10
-251283.005554
 20
150495.071401
 30
0.0
 40
3.75
  1
13
 50
30.0
  7
Style-Arial Narrow
100
AcDbText
  0
TEXT
  5
42BD
330
44B0
100
AcDbEntity
  8
Måleblad tekst kursiv 0_15
  6
Continuous
 62
     7
370
     0
100
AcDbText
 10
-251219.211277
 20
150501.623836
 30
0.0
 40
3.75
  1
16
 50
30.0
  7
Style-Arial Narrow
100
AcDbText
  0
TEXT
  5
42BF
330
44B0
100
AcDbEntity
  8
Måleblad tekst kursiv 0_15
  6
Continuous
 62
     7
370
     0
100
AcDbText
 10
-251258.576993
 20
150472.721442
 30
0.0
 40
3.75
  1
12
 50
30.0
  7
Style-Arial Narrow
100
AcDbText
  0
TEXT
  5
42C1
330
44B0
100
AcDbEntity
  8
Kosmetikmatrikelnummer + 1 2000
100
AcDbText
 10
-251165.628406
 20
150514.946895
 30
0.0
 40
8.0
  1
3ag
 50
30.0
  7
Style-MatrikArial
 72
     1
 11
-251150.599872
 21
150528.242425
 31
0.0
100
AcDbText
 73
     2
  0
INSERT
  5
42C7
330
44B0
100
AcDbEntity
  8
Skelpunkt øvrige mål (Kl 2)
  6
Continuous
 62
   173
370
    13
100
AcDbBlockReference
  2
SKELP
 10
-251179.096
 20
150550.223
 30
0.000001
  0
INSERT
  5
42C9
330
44B0
100
AcDbEntity
  8
Skelpunkt øvrige mål (Kl 2)
  6
Continuous
 62
   173
370
    13
100
AcDbBlockReference
  2
SKELP
 10
-251137.902
 20
150487.391
 30
0.000001
  0
INSERT
  5
42CB
330
44B0
100
AcDbEntity
  8
Skelpunkt øvrige mål (Kl 2)
  6
Continuous
 62
   173
370
    13
100
AcDbBlockReference
  2
SKELP
 10
-251240.512
 20
150416.41
 30
0.000001
  0
INSERT
  5
42CD
330
44B0
100
AcDbEntity
  8
Skelpunkt øvrige mål (Kl 2)
  6
Continuous
 62
   173
370
    13
100
AcDbBlockReference
  2
SKELP
 10
-251395.957
 20
150308.879
 30
0.000001
  0
INSERT
  5
42CF
330
44B0
100
AcDbEntity
  8
Skelpunkt øvrige mål (Kl 2)
  6
Continuous
 62
   173
370
    13
100
AcDbBlockReference
  2
SKELP
 10
-251437.168
 20
150280.371
 30
0.000001
  0
TEXT
  5
42C5
330
44B0
100
AcDbEntity
  8
Punktnummer
  6
DGN Style 1
 62
     7
370
     0
100
AcDbText
 10
-251395.957
 20
150308.879
 30
0.000001
 40
2.0
  1
140
 50
30.0
  7
Style-Arial
100
AcDbText
  0
TEXT
  5
42C6
330
44B0
100
AcDbEntity
  8
Punktnummer
  6
DGN Style 1
 62
     7
370
     0
100
AcDbText
 10
-251442.442856
 20
150278.43164
 30
0.000001
 40
2.0
  1
141
 50
30.0
  7
Style-Arial
100
AcDbText
  0
TEXT
  5
42C4
330
44B0
100
AcDbEntity
  8
Punktnummer
  6
DGN Style 1
 62
     7
370
     0
100
AcDbText
 10
-251238.101152
 20
150414.685922
 30
0.000001
 40
2.0
  1
139
 50
30.0
  7
Style-Arial
100
AcDbText
  0
TEXT
  5
42C2
330
44B0
100
AcDbEntity
  8
Punktnummer
  6
DGN Style 1
 62
     7
370
     0
100
AcDbText
 10
-251179.183352
 20
150551.147018
 30
0.000001
 40
2.0
  1
137
 50
30.0
  7
Style-Arial
100
AcDbText
  0
TEXT
  5
42C3
330
44B0
100
AcDbEntity
  8
Punktnummer
  6
DGN Style 1
 62
     7
370
     0
100
AcDbText
 10
-251137.957608
 20
150487.975192
 30
0.000001
 40
2.0
  1
138
 50
30.0
  7
Style-Arial
100
AcDbText
  0
INSERT
  5
42D2
330
44B0
100
AcDbEntity
  8
Måleblad fuld 0_15
  6
Continuous
 62
     7
370
     0
100
AcDbBlockReference
  2
RETLIM
 10
-251427.518079
 20
150320.313023
 30
0.0
 41
0.8
 42
0.8
 43
1.2
 50
26.114865
  0
INSERT
  5
42D9
330
44B0
100
AcDbEntity
  8
Måleblad fuld 0_15
  6
Continuous
 62
     7
370
     0
100
AcDbBlockReference
  2
RETLIM
 10
-251441.234325
 20
150348.286586
 30
0.0
 41
0.8
 42
0.8
 43
1.2
 50
26.114865
  0
INSERT
  5
42E0
330
44B0
100
AcDbEntity
  8
Måleblad fuld 0_15
  6
Continuous
 62
     7
370
     0
100
AcDbBlockReference
  2
RETLIM
 10
-251420.335273
 20
150323.834988
 30
0.0
 41
0.8
 42
0.8
 43
1.2
 50
295.808585
  0
INSERT
  5
42E7
330
44B0
100
AcDbEntity
  8
Måleblad fuld 0_15
  6
Continuous
 62
     7
370
     0
100
AcDbBlockReference
  2
RETLIM
 10
-251410.334309
 20
150303.438545
 30
0.0
 41
0.8
 42
0.8
 43
1.2
 50
214.977626
  0
INSERT
  5
42EE
330
44B0
100
AcDbEntity
  8
Måleblad fuld 0_15
  6
Continuous
 62
     7
370
     0
100
AcDbBlockReference
  2
RETLIM
 10
-251467.430275
 20
150335.441857
 30
0.0
 41
0.8
 42
0.8
 43
1.2
 50
302.871447
  0
INSERT
  5
42F4
330
44B0
100
AcDbEntity
  8
Måleblad fuld 0_15
  6
Continuous
 62
     7
370
     0
100
AcDbBlockReference
  2
RETLIM
 10
-251450.243243
 20
150309.170134
 30
0.0
 41
0.8
 42
0.8
 43
1.2
 50
302.871447
  0
INSERT
  5
42FB
330
44B0
100
AcDbEntity
  8
Måleblad fuld 0_15
  6
Continuous
 62
     7
370
     0
100
AcDbBlockReference
  2
RETLIM
 10
-251444.108449
 20
150372.319129
 30
0.0
 41
0.8
 42
0.8
 43
1.2
 50
206.149122
  0
INSERT
  5
4302
330
44B0
100
AcDbEntity
  8
Måleblad fuld 0_15
  6
Continuous
 62
     7
370
     0
100
AcDbBlockReference
  2
RETLIM
 10
-251348.081371
 20
150419.404347
 30
0.0
 41
0.8
 42
0.8
 43
1.2
 50
206.123654
  0
INSERT
  5
4308
330
44B0
100
AcDbEntity
  8
Måleblad fuld 0_15
  6
Continuous
 62
     7
370
     0
100
AcDbBlockReference
  2
RETLIM
 10
-251317.60371
 20
150434.348541
 30
0.0
 41
0.8
 42
0.8
 43
1.2
 50
206.123654
  0
INSERT
  5
430F
330
44B0
100
AcDbEntity
  8
Måleblad fuld 0_15
  6
Continuous
 62
     7
370
     0
100
AcDbBlockReference
  2
RETLIM
 10
-251276.616664
 20
150447.077429
 30
0.0
 41
0.8
 42
0.8
 43
1.2
 50
3.454746
  0
INSERT
  5
4316
330
44B0
100
AcDbEntity
  8
Måleblad fuld 0_15
  6
Continuous
 62
     7
370
     0
100
AcDbBlockReference
  2
RETLIM
 10
-251304.017638
 20
150414.708489
 30
0.0
 41
0.8
 42
0.8
 43
1.2
 50
214.376833
  0
INSERT
  5
431C
330
44B0
100
AcDbEntity
  8
Måleblad fuld 0_15
  6
Continuous
 62
     7
370
     0
100
AcDbBlockReference
  2
RETLIM
 10
-251295.326911
 20
150410.992999
 30
0.0
 41
0.8
 42
0.8
 43
1.2
 50
214.376833
  0
INSERT
  5
4324
330
44B0
100
AcDbEntity
  8
Måleblad fuld 0_15
  6
Continuous
 62
     7
370
     0
100
AcDbBlockReference
  2
RETLIM
 10
-251282.253682
 20
150392.094313
 30
0.0
 41
0.8
 42
0.8
 43
1.2
 50
214.376833
  0
INSERT
  5
432B
330
44B0
100
AcDbEntity
  8
Måleblad fuld 0_15
  6
Continuous
 62
     7
370
     0
100
AcDbBlockReference
  2
RETLIM
 10
-251322.520837
 20
150382.453988
 30
0.0
 41
0.8
 42
0.8
 43
1.2
 50
124.606443
  0
INSERT
  5
4332
330
44B0
100
AcDbEntity
  8
Måleblad fuld 0_15
  6
Continuous
 62
     7
370
     0
100
AcDbBlockReference
  2
RETLIM
 10
-251336.174183
 20
150402.191291
 30
0.0
 41
0.8
 42
0.8
 43
1.2
 50
124.606443
  0
INSERT
  5
4340
330
44B0
100
AcDbEntity
  8
Måleblad fuld 0_15
  6
Continuous
 62
     7
370
     0
100
AcDbBlockReference
  2
RETLIM
 10
-251219.449962
 20
150435.539338
 30
0.0
 41
0.8
 42
0.8
 43
1.2
 50
34.376833
  0
INSERT
  5
4346
330
44B0
100
AcDbEntity
  8
Måleblad fuld 0_15
  6
Continuous
 62
     7
370
     0
100
AcDbBlockReference
  2
RETLIM
 10
-251196.833085
 20
150451.184762
 30
0.0
 41
0.8
 42
0.8
 43
1.2
 50
34.376833
  0
INSERT
  5
434C
330
44B0
100
AcDbEntity
  8
Måleblad fuld 0_15
  6
Continuous
 62
     7
370
     0
100
AcDbBlockReference
  2
RETLIM
 10
-251170.926482
 20
150469.105886
 30
0.0
 41
0.8
 42
0.8
 43
1.2
 50
34.376833
  0
INSERT
  5
4352
330
44B0
100
AcDbEntity
  8
Måleblad fuld 0_15
  6
Continuous
 62
     7
370
     0
100
AcDbBlockReference
  2
RETLIM
 10
-251215.077927
 20
150476.948859
 30
0.0
 41
0.8
 42
0.8
 43
1.2
 50
214.376833
  0
INSERT
  5
435E
330
44B0
100
AcDbEntity
  8
Måleblad fuld 0_15
  6
Continuous
 62
     7
370
     0
100
AcDbBlockReference
  2
RETLIM
 10
-251237.574417
 20
150461.146886
 30
0.0
 41
0.8
 42
0.8
 43
1.2
 50
214.376833
  0
INSERT
  5
4366
330
44B0
100
AcDbEntity
  8
Måleblad fuld 0_15
  6
Continuous
 62
     7
370
     0
100
AcDbBlockReference
  2
RETLIM
 10
-251259.370028
 20
150482.99243
 30
0.0
 41
0.8
 42
0.8
 43
1.2
 50
214.376833
  0
INSERT
  5
436C
330
44B0
100
AcDbEntity
  8
Måleblad fuld 0_15
  6
Continuous
 62
     7
370
     0
100
AcDbBlockReference
  2
RETLIM
 10
-251230.996077
 20
150502.620364
 30
0.0
 41
0.8
 42
0.8
 43
1.2
 50
214.376833
  0
INSERT
  5
4374
330
44B0
100
AcDbEntity
  8
Måleblad fuld 0_15
  6
Continuous
 62
     7
370
     0
100
AcDbBlockReference
  2
RETLIM
 10
-251240.894386
 20
150505.500497
 30
0.0
 41
0.8
 42
0.8
 43
1.2
 50
214.376833
  0
INSERT
  5
437B
330
44B0
100
AcDbEntity
  8
Måleblad fuld 0_15
  6
Continuous
 62
     7
370
     0
100
AcDbBlockReference
  2
RETLIM
 10
-251263.921144
 20
150489.571532
 30
0.0
 41
0.8
 42
0.8
 43
1.2
 50
304.376833
  0
INSERT
  5
438D
330
44B0
100
AcDbEntity
  8
Måleblad fuld 0_15
  6
Continuous
 62
     7
370
     0
100
AcDbBlockReference
  2
RETLIM
 10
-251278.056684
 20
150470.065771
 30
0.0
 41
0.8
 42
0.8
 43
1.2
 50
304.376833
  0
MTEXT
  5
4338
330
44B0
100
AcDbEntity
  8
Måleblad tekst kursiv 0_15
  6
Continuous
 62
     7
370
     0
100
AcDbMText
 10
-251384.194663
 20
150383.945228
 30
0.0
 40
3.0
 41
0.0
 71
     5
 72
     1
  1
Matr.nr. 3af\Pblev udstykket \Punder\PJournalnr:\PU2018-51268
  7
Tiimes New Roman
 11
0.866025
 21
0.5
 31
0.0
 73
     2
 44
0.791214
1001
ACAD
1000
MTEXTBEGIN
1070
    73
1070
     2
1070
    44
1040
0.791214
1070
    74
1070
     0
1000
MTEXTEND
  0
LWPOLYLINE
  5
439C
330
44B0
100
AcDbEntity
  8
Måleblad fuld 0_35
  6
Continuous
 62
     7
370
    13
100
AcDbPolyline
 90
        2
 70
   128
 43
0.0
 10
-251281.710238
 20
150339.674633
 10
-251291.899863
 20
150332.625834
  0
ARC
  5
439D
330
44B0
100
AcDbEntity
  8
Måleblad fuld 0_35
  6
Continuous
 62
     7
370
    13
100
AcDbCircle
 10
-250554.911525
 20
149689.751504
 30
0.0
 40
977.9778155646905
100
AcDbArc
 50
138.172282
 51
138.901835
  0
LINE
  5
439E
330
44B0
100
AcDbEntity
  8
Måleblad fuld 0_35
  6
Continuous
 62
     7
370
    13
100
AcDbLine
 10
-251289.482372
 20
150335.387839
 30
0.0
 11
-251295.126831
 21
150343.547481
 31
0.0
  0
LWPOLYLINE
  5
439F
330
44B0
100
AcDbEntity
  8
Måleblad fuld 0_35
  6
Continuous
 62
     7
370
    13
100
AcDbPolyline
 90
        2
 70
   128
 43
0.0
 10
-251291.899863
 20
150332.625834
 10
-251298.961156
 20
150327.741097
  0
INSERT
  5
43A0
330
44B0
100
AcDbEntity
  8
Måleblad fuld 0_15
  6
Continuous
 62
     7
370
     0
100
AcDbBlockReference
  2
RETLIM
 10
-251291.899863
 20
150332.625834
 30
0.0
 41
0.8
 42
0.8
 43
8.0
 50
214.771441
  0
INSERT
  5
43AC
330
44B0
100
AcDbEntity
  8
Måleblad fuld 0_15
  6
Continuous
 62
     7
370
     0
100
AcDbBlockReference
  2
CIRKEL
 10
-251291.899863
 20
150332.625834
 30
0.0
 43
2.0
 50
90.0
  0
INSERT
  5
43B0
330
44B0
100
AcDbEntity
  8
Måleblad fuld 0_15
  6
Continuous
 62
     7
370
     0
100
AcDbBlockReference
  2
CIRKEL
 10
-251289.482372
 20
150335.387839
 30
0.0
 43
2.0
 50
90.0
  0
CIRCLE
  5
43B4
330
44B0
100
AcDbEntity
  8
Måleblad fuld 0_15
  6
Continuous
 62
     7
370
     0
100
AcDbCircle
 10
-251290.592654
 20
150334.079318
 30
0.0
 40
10.49785075272267
  0
TEXT
  5
43B5
330
44B0
100
AcDbEntity
  8
Måleblad tekst kursiv 0_15
  6
Continuous
 62
     7
370
     0
100
AcDbText
 10
-251293.82312
 20
150325.327081
 30
0.0
 40
3.0
  1
105
 50
30.0
  7
Tiimes New Roman
 72
     1
 11
-251291.695943
 21
150328.287258
 31
0.0
100
AcDbText
 73
     2
  0
TEXT
  5
43B6
330
44B0
100
AcDbEntity
  8
Måleblad tekst kursiv 0_15
  6
Continuous
 62
     7
370
     0
100
AcDbText
 10
-251286.940855
 20
150330.831371
 30
0.0
 40
3.0
  1
19
 50
30.0
  7
Tiimes New Roman
 72
     1
 11
-251285.772736
 21
150333.237835
 31
0.0
100
AcDbText
 73
     2
  0
POINT
  5
43B8
330
44B0
100
AcDbEntity
  8
Måleblad fuld 0_15
  6
Continuous
 62
     7
370
     0
100
AcDbPoint
 10
-251293.525232
 20
150344.449099
 30
0.0
  0
LINE
  5
43B9
330
44B0
100
AcDbEntity
  8
Måleblad fuld 0_15
  6
Continuous
 62
     7
370
     0
100
AcDbLine
 10
-251296.473879
 20
150343.13255
 30
0.000001
 11
-251310.1933
 21
150363.932525
 31
0.000001
  0
LINE
  5
43BA
330
44B0
100
AcDbEntity
  8
Måleblad fuld 0_15
  6
Continuous
 62
     7
370
     0
100
AcDbLine
 10
-251310.1933
 20
150363.932525
 30
0.000001
 11
-251307.805599
 21
150362.988878
 31
0.000001
  0
LINE
  5
43BB
330
44B0
100
AcDbEntity
  8
Måleblad fuld 0_15
  6
Continuous
 62
     7
370
     0
100
AcDbLine
 10
-251310.1933
 20
150363.932525
 30
0.000001
 11
-251310.265825
 21
150361.366142
 31
0.000001
  0
CIRCLE
  5
43BC
330
44B0
100
AcDbEntity
  8
Måleblad fuld 0_15
  6
Continuous
 62
     7
370
     0
100
AcDbCircle
 10
-251286.628412
 20
150316.357059
 30
0.0
 40
3.75
  0
TEXT
  5
43BD
330
44B0
100
AcDbEntity
  8
Måleblad tekst kursiv 0_15
  6
Continuous
 62
     7
370
     0
100
AcDbText
 10
-251286.693048
 20
150313.988041
 30
0.0
 40
3.75
  1
1
 50
30.0
  7
Style-Arial Narrow
100
AcDbText
  0
MTEXT
  5
43BE
330
44B0
100
AcDbEntity
  8
Måleblad tekst kursiv 0_15
  6
Continuous
 62
     7
370
     0
100
AcDbMText
 10
-251276.777857
 20
150322.72768
 30
0.0
 40
3.0
 41
0.0
 71
     5
 72
     1
  1
= delnr.
  7
Tiimes New Roman
 11
0.866025
 21
0.5
 31
0.0
 73
     2
 44
0.6
1001
ACAD
1000
MTEXTBEGIN
1070
    73
1070
     2
1070
    44
1040
0.6
1070
    74
1070
     0
1000
MTEXTEND
  0
CIRCLE
  5
43C6
330
44B0
100
AcDbEntity
  8
Måleblad fuld 0_15
  6
Continuous
 62
     7
370
     0
100
AcDbCircle
 10
-251290.15712
 20
150341.014707
 30
0.0
 40
2.625
  0
CIRCLE
  5
43C7
330
44B0
100
AcDbEntity
  8
Måleblad fuld 0_15
  6
Continuous
 62
     7
370
     0
100
AcDbCircle
 10
-251295.60127
 20
150337.148346
 30
0.0
 40
2.625
  0
TEXT
  5
43C8
330
44B0
100
AcDbEntity
  8
Måleblad tekst kursiv 0_15
  6
Continuous
 62
     7
370
     0
100
AcDbText
 10
-251296.547412
 20
150335.054083
 30
0.0
 40
2.625
  1
11
 50
30.0
  7
Style-Arial Narrow
100
AcDbText
  0
TEXT
  5
43C5
330
44B0
100
AcDbEntity
  8
Måleblad tekst kursiv 0_15
  6
Continuous
 62
     7
370
     0
100
AcDbText
 10
-251291.196281
 20
150339.115885
 30
0.0
 40
2.625
  1
10
 50
30.0
  7
Style-Arial Narrow
100
AcDbText
  0
TEXT
  5
43C9
330
44B0
100
AcDbEntity
  8
Kosmetikmatrikelnummer + 1 2000
100
AcDbText
 10
-251301.380591
 20
150532.389825
 30
0.0
 40
8.0
  1
7a
 50
30.0
  7
Style-MatrikArial
 72
     1
 11
-251292.107415
 21
150542.362498
 31
0.0
100
AcDbText
 73
     2
  0
MTEXT
  5
43F7
102
{ACAD_XDICTIONARY
360
4569
102
}
330
44B0
100
AcDbEntity
  8
Måleblad tekst kursiv 0_15
  6
Continuous
 62
     7
370
     0
100
AcDbMText
 10
-251362.862765
 20
150416.926124
 30
0.0
 40
3.0
 41
0.0
 71
     5
 72
     1
  1
Remmerslundvej - priv. f\U+00E6llesvej
  7
Tiimes New Roman
 11
0.895908
 21
0.44424
 31
0.0
 73
     2
 44
0.6
1001
ACAD
1000
MTEXTBEGIN
1070
    73
1070
     2
1070
    44
1040
0.6
1070
    74
1070
     0
1000
MTEXTEND
  0
ENDSEC
  0
SECTION
  2
OBJECTS
  0
DICTIONARY
  5
44B5
330
0
100
AcDbDictionary
281
     1
  3
ACAD_COLOR
350
44EB
  3
ACAD_GROUP
350
44D8
  3
ACAD_LAYOUT
350
44C2
  3
ACAD_MATERIAL
350
44B7
  3
ACAD_MLEADERSTYLE
350
44EE
  3
ACAD_MLINESTYLE
350
44D9
  3
ACAD_PLOTSETTINGS
350
44DA
  3
ACAD_PLOTSTYLENAME
350
44B4
  3
ACAD_SCALELIST
350
44EC
  3
ACAD_TABLESTYLE
350
44ED
  3
ACAD_VISUALSTYLE
350
44D3
  3
AcadDim
350
453E
  3
ACDB_RECOMPOSE_DATA
350
4565
  3
AcDbVariableDictionary
350
4556
  3
DWGPROPS
350
4566
  3
MicroStation
350
453F
  0
DICTIONARY
  5
4508
330
44C7
100
AcDbDictionary
280
     1
281
     1
  3
ACAD_LAYERFILTERS
360
4509
  3
ACLYDICTIONARY
360
450A
  0
DICTIONARY
  5
4552
330
44B0
100
AcDbDictionary
280
     1
281
     1
  3
ACAD_SORTENTS
360
4553
  0
DICTIONARY
  5
4567
330
402E
100
AcDbDictionary
280
     1
281
     1
  3
ACAD_MTEXT_RT
360
4568
  0
DICTIONARY
  5
4569
330
43F7
100
AcDbDictionary
280
     1
281
     1
  3
ACAD_MTEXT_RT
360
456A
  0
DICTIONARY
  5
44EB
102
{ACAD_REACTORS
330
44B5
102
}
330
44B5
100
AcDbDictionary
281
     1
  0
DICTIONARY
  5
44D8
102
{ACAD_REACTORS
330
44B5
102
}
330
44B5
100
AcDbDictionary
281
     1
  0
DICTIONARY
  5
44C2
102
{ACAD_REACTORS
330
44B5
102
}
330
44B5
100
AcDbDictionary
281
     1
  3
Layout1
350
44C6
  3
Model
350
44C1
  0
DICTIONARY
  5
44B7
102
{ACAD_REACTORS
330
44B5
102
}
330
44B5
100
AcDbDictionary
281
     1
  3
ByBlock
350
44E3
  3
ByLayer
350
44DB
  3
Global
350
44B6
  0
DICTIONARY
  5
44EE
102
{ACAD_REACTORS
330
44B5
102
}
330
44B5
100
AcDbDictionary
281
     1
  0
DICTIONARY
  5
44D9
102
{ACAD_REACTORS
330
44B5
102
}
330
44B5
100
AcDbDictionary
281
     1
  3
STANDARD
350
44EF
  0
DICTIONARY
  5
44DA
102
{ACAD_REACTORS
330
44B5
102
}
330
44B5
100
AcDbDictionary
281
     1
  0
ACDBDICTIONARYWDFLT
  5
44B4
102
{ACAD_REACTORS
330
44B5
102
}
330
44B5
100
AcDbDictionary
281
     1
  3
Normal
350
44B3
100
AcDbDictionaryWithDefault
340
44B3
  0
DICTIONARY
  5
44EC
102
{ACAD_REACTORS
330
44B5
102
}
330
44B5
100
AcDbDictionary
281
     1
  3
A0
350
44F4
  3
A1
350
44F5
  3
A2
350
44F6
  3
A3
350
44F7
  3
A4
350
44F8
  3
A5
350
44F9
  3
A6
350
44FA
  3
A7
350
44FB
  3
A8
350
44FC
  3
A9
350
44FD
  3
B0
350
44FE
  3
B1
350
44FF
  3
B2
350
4500
  3
B3
350
4501
  3
B4
350
4502
  3
B5
350
4503
  3
B6
350
4504
  0
DICTIONARY
  5
44ED
102
{ACAD_REACTORS
330
44B5
102
}
330
44B5
100
AcDbDictionary
281
     1
  3
Standard
350
44F0
  0
DICTIONARY
  5
44D3
102
{ACAD_REACTORS
330
44B5
102
}
330
44B5
100
AcDbDictionary
281
     1
  3
2dWireframe
350
44D2
  3
Realistic
350
44F1
  3
Wireframe
350
44F2
  0
XRECORD
  5
453E
102
{ACAD_REACTORS
330
44B5
102
}
330
44B5
100
AcDbXrecord
280
     1
 90
   990106
  3
 
 60
     0
 61
     0
 62
     1
 63
     1
 64
     0
 65
     0
 66
     0
 67
     3
 68
     1
 69
     1
 70
     0
 71
     0
 72
     0
 40
0.0
170
     0
  0
XRECORD
  5
4565
102
{ACAD_REACTORS
330
44B5
102
}
330
44B5
100
AcDbXrecord
280
     1
 90
        1
330
44F0
  0
DICTIONARY
  5
4556
102
{ACAD_REACTORS
330
44B5
102
}
330
44B5
100
AcDbDictionary
281
     1
  3
CANNOSCALE
350
455B
  3
CMLEADERSTYLE
350
4558
  3
CTABLESTYLE
350
4557
  3
CVIEWDETAILSTYLE
350
4559
  3
CVIEWSECTIONSTYLE
350
455A
  3
DIMASSOC
350
455F
  3
HIDETEXT
350
455E
  3
INDEXCTL
350
455D
  3
LIGHTGLYPHDISPLAY
350
4560
  3
SORTENTS
350
455C
  3
XCLIPFRAME
350
4561
  0
XRECORD
  5
4566
102
{ACAD_REACTORS
330
44B5
102
}
330
44B5
100
AcDbXrecord
280
     1
  1
DWGPROPS COOKIE
  2

  3

  4
pf
  6

  7

  8
pf
  9

300
=
301
=
302
=
303
=
304
=
305
=
306
=
307
=
308
=
309
=
 40
0.000677
 41
2451789.579135
 42
2455309.620498
  1

 90
        0
  0
DICTIONARY
  5
453F
102
{ACAD_REACTORS
330
44B5
102
}
330
44B5
100
AcDbDictionary
281
     1
  3
ModelApplicationElement 0 14683 766
350
395B
  0
DICTIONARY
  5
4509
102
{ACAD_REACTORS
330
4508
102
}
330
4508
100
AcDbDictionary
281
     1
  0
DICTIONARY
  5
450A
102
{ACAD_REACTORS
330
4508
102
}
330
4508
100
AcDbDictionary
281
     1
  0
SORTENTSTABLE
  5
4553
102
{ACAD_REACTORS
330
4552
102
}
330
4552
100
AcDbSortentsTable
330
44B0
331
3FF3
  5
427A
331
4096
  5
3FE9
331
40D9
  5
40A3
331
402E
  5
3FC0
331
39F7
  5
39F7
331
3F40
  5
3F40
331
39FF
  5
39FF
331
3A07
  5
3A07
331
3F00
  5
3F00
331
3DC1
  5
3DC1
331
3D62
  5
3D62
331
3AF3
  5
3AF3
331
3A65
  5
3A65
331
3F08
  5
3F08
331
3DC9
  5
3DC9
331
3D6A
  5
3D6A
331
3A6D
  5
3A6D
331
4148
  5
4198
331
4152
  5
416C
331
4224
  5
4134
331
41AE
  5
40F8
331
3F10
  5
3F10
331
3D92
  5
3D92
331
3B03
  5
3B03
331
3AB4
  5
3AB4
331
3A75
  5
3A75
331
4158
  5
4178
331
422C
  5
4138
331
41B6
  5
40FD
331
3F18
  5
3F18
331
3EE1
  5
3EE1
331
3D9A
  5
3D9A
331
3B0B
  5
3B0B
331
3A7D
  5
3A7D
331
40F8
  5
420A
331
413C
  5
4238
331
410A
  5
41E8
331
4146
  5
4194
331
4234
  5
413C
331
41BE
  5
4101
331
42B7
  5
42BC
331
4100
  5
4204
331
4112
  5
41EE
331
4174
  5
419C
331
423C
  5
4140
331
41C6
  5
4105
331
42BF
  5
42C0
331
4130
  5
4224
331
437B
  5
4374
331
411A
  5
41F4
331
417C
  5
41B8
331
42C7
  5
42C2
331
4128
  5
4258
331
43B6
  5
43B6
331
4164
  5
41BC
331
42CF
  5
42C6
331
40AA
  5
406B
331
3A0F
  5
3A0F
331
39D0
  5
39D0
331
3FE4
  5
4274
331
3A1F
  5
3A1F
331
39E0
  5
39E0
331
3F20
  5
3F20
331
3EE9
  5
3EE9
331
3DA2
  5
3DA2
331
3B13
  5
3B13
331
3AC4
  5
3AC4
331
3F28
  5
3F28
331
3EF1
  5
3EF1
331
3DAA
  5
3DAA
331
3ACC
  5
3ACC
331
4244
  5
4144
331
41CE
  5
4109
331
409F
  5
409A
331
3F30
  5
3F30
331
3EF9
  5
3EF9
331
3DB2
  5
3DB2
331
3AE4
  5
3AE4
331
3A9D
  5
3A9D
331
3A56
  5
3A56
331
424C
  5
4148
331
41D6
  5
410D
331
40A7
  5
4067
331
3F38
  5
3F38
331
3DBA
  5
3DBA
331
3AEC
  5
3AEC
331
4120
  5
4244
331
43BE
  5
43BE
331
416C
  5
41D0
331
4254
  5
414C
331
41DE
  5
4111
331
43C6
  5
43C5
331
4298
  5
4296
331
425C
  5
4150
331
41E6
  5
4115
331
4302
  5
4302
331
42A0
  5
429A
331
42E7
  5
42E7
331
42A8
  5
429E
331
401B
  5
428A
331
39E8
  5
39E8
331
4097
  5
3FEE
331
4186
  5
40A7
331
3FD5
  5
426E
331
418A
  5
40A9
331
3F41
  5
3F41
331
3A00
  5
3A00
331
3F01
  5
3F01
331
3DC2
  5
3DC2
331
3D63
  5
3D63
331
3AF4
  5
3AF4
331
3AA5
  5
3AA5
331
3F09
  5
3F09
331
3DCA
  5
3DCA
331
3D6B
  5
3D6B
331
3AFC
  5
3AFC
331
4149
  5
4196
331
4153
  5
416B
331
4264
  5
4154
331
41EE
  5
4119
331
3F11
  5
3F11
331
3D93
  5
3D93
331
3B04
  5
3B04
331
3AB5
  5
3AB5
331
4159
  5
417B
331
426C
  5
4158
331
41F6
  5
411D
331
3F19
  5
3F19
331
3EE2
  5
3EE2
331
3D9B
  5
3D9B
331
3B0C
  5
3B0C
331
3ABD
  5
3ABD
331
3A7E
  5
3A7E
331
3A3F
  5
3A3F
331
42B0
  5
42A2
331
436C
  5
4366
331
410B
  5
41E6
331
4147
  5
4192
331
413D
  5
4182
331
4274
  5
415C
331
41FE
  5
4121
331
42B8
  5
42A6
331
4101
  5
4210
331
4374
  5
436C
331
4113
  5
41FA
331
4175
  5
419A
331
427C
  5
4160
331
4206
  5
4125
331
42C0
  5
42AA
331
411B
  5
424E
331
4131
  5
4222
331
417D
  5
41AE
331
4129
  5
4256
331
4165
  5
41C2
331
4192
  5
40AD
331
40AB
  5
4092
331
4067
  5
3FC6
331
400C
  5
4284
331
419A
  5
40B1
331
39D1
  5
39D1
331
41A2
  5
40C1
331
40BB
  5
409D
331
39E1
  5
39E1
331
3F21
  5
3F21
331
3EEA
  5
3EEA
331
3DA3
  5
3DA3
331
3B14
  5
3B14
331
3A86
  5
3A86
331
4098
  5
3FF3
331
3F29
  5
3F29
331
3EF2
  5
3EF2
331
3DAB
  5
3DAB
331
3B1C
  5
3B1C
331
3ACD
  5
3ACD
331
3A4F
  5
3A4F
331
4284
  5
4164
331
420E
  5
4129
331
3F31
  5
3F31
331
3EFA
  5
3EFA
331
3DB3
  5
3DB3
331
3D5C
  5
3D5C
331
3AE5
  5
3AE5
331
3A57
  5
3A57
331
428C
  5
4168
331
4216
  5
412D
331
3F39
  5
3F39
331
3DBB
  5
3DBB
331
3AED
  5
3AED
331
4332
  5
4332
331
4121
  5
424A
331
416D
  5
41CE
331
421E
  5
4131
331
43C7
  5
43C6
331
439C
  5
439C
331
42FB
  5
42FB
331
4299
  5
42AD
331
42E0
  5
42E0
331
43F7
  5
43F7
331
42A1
  5
42B1
331
42A9
  5
42B5
331
3FC6
  5
4268
331
39E9
  5
39E9
331
40D3
  5
40A2
331
3FFD
  5
427E
331
39F9
  5
39F9
331
3F42
  5
3F42
331
4069
  5
3FCB
331
3F02
  5
3F02
331
3DC3
  5
3DC3
331
3D64
  5
3D64
331
3AF5
  5
3AF5
331
3A28
  5
3A28
331
41A8
  5
40D3
331
3F0A
  5
3F0A
331
3DCB
  5
3DCB
331
3D6C
  5
3D6C
331
3AFD
  5
3AFD
331
3AAE
  5
3AAE
331
3A6F
  5
3A6F
331
3A30
  5
3A30
331
414A
  5
418C
331
4154
  5
416E
331
4226
  5
4135
331
41B0
  5
40FA
331
3F12
  5
3F12
331
3D94
  5
3D94
331
3B05
  5
3B05
331
3A77
  5
3A77
331
3A38
  5
3A38
331
4140
  5
4184
331
415A
  5
417A
331
422E
  5
4139
331
41B8
  5
40FE
331
3F1A
  5
3F1A
331
3EE3
  5
3EE3
331
3D9C
  5
3D9C
331
3B0D
  5
3B0D
331
42B1
  5
42B9
331
40FA
  5
4208
331
410C
  5
41EC
331
413E
  5
4180
331
4236
  5
413D
331
41C0
  5
4102
331
42B9
  5
42BD
331
4102
  5
421C
331
4114
  5
41F8
331
4176
  5
41A0
331
423E
  5
4141
331
42C1
  5
42C1
331
411C
  5
424C
331
4132
  5
4228
331
43B0
  5
43B0
331
417E
  5
41AC
331
42C9
  5
42C3
331
438D
  5
437B
331
432B
  5
432B
331
412A
  5
425C
331
4166
  5
41C0
331
40AC
  5
4094
331
3A11
  5
3A11
331
39D2
  5
39D2
331
40B0
  5
4098
331
3A19
  5
3A19
331
3FEE
  5
4278
331
39E2
  5
39E2
331
3A40
  5
3A40
331
3F22
  5
3F22
331
3EEB
  5
3EEB
331
3DA4
  5
3DA4
331
3B15
  5
3B15
331
3AC6
  5
3AC6
331
41C8
  5
4106
331
4099
  5
3FF8
331
3F2A
  5
3F2A
331
3EF3
  5
3EF3
331
3DAC
  5
3DAC
331
3B1D
  5
3B1D
331
4246
  5
4145
331
41D0
  5
410A
331
40A1
  5
4016
331
3F32
  5
3F32
331
3EFB
  5
3EFB
331
3DB4
  5
3DB4
331
3AE6
  5
3AE6
331
3A9F
  5
3A9F
331
43B8
  5
43B8
331
424E
  5
4149
331
41D8
  5
410E
331
3DBC
  5
3DBC
331
42F4
  5
42F4
331
4122
  5
4248
331
4295
  5
42AB
331
416E
  5
41D4
331
4256
  5
414D
331
41E0
  5
4112
331
42D9
  5
42D9
331
439D
  5
439D
331
429A
  5
4297
331
425E
  5
4151
331
435E
  5
4352
331
42A2
  5
429B
331
4366
  5
435E
331
42AA
  5
429F
331
39EA
  5
39EA
331
4025
  5
428E
331
4180
  5
41B0
331
43C8
  5
43C7
331
418C
  5
40AA
331
3F43
  5
3F43
331
406A
  5
3FD0
331
3F03
  5
3F03
331
3DC4
  5
3DC4
331
3D65
  5
3D65
331
3AF6
  5
3AF6
331
3A68
  5
3A68
331
41E8
  5
4116
331
3F0B
  5
3F0B
331
3DCC
  5
3DCC
331
3D6D
  5
3D6D
331
3AFE
  5
3AFE
331
3AAF
  5
3AAF
331
414B
  5
418A
331
4155
  5
416D
331
4266
  5
4155
331
41F0
  5
411A
331
3F13
  5
3F13
331
3EDC
  5
3EDC
331
3D95
  5
3D95
331
3B06
  5
3B06
331
3A78
  5
3A78
331
4141
  5
417D
331
415B
  5
4175
331
426E
  5
4159
331
41F8
  5
411E
331
3F1B
  5
3F1B
331
3EE4
  5
3EE4
331
3D9D
  5
3D9D
331
3B0E
  5
3B0E
331
3ABF
  5
3ABF
331
42B2
  5
42A3
331
40FB
  5
420E
331
410D
  5
41EA
331
413F
  5
4186
331
4276
  5
415D
331
4200
  5
4122
331
42BA
  5
42A7
331
431C
  5
431C
331
4103
  5
421A
331
4115
  5
41FE
331
4177
  5
419E
331
427E
  5
4161
331
42C2
  5
42CD
331
4324
  5
4324
331
411D
  5
4252
331
4133
  5
4226
331
417F
  5
41B2
331
412B
  5
425A
331
4167
  5
41CC
331
4194
  5
40AE
331
3FDF
  5
4272
331
40AD
  5
4095
331
3A12
  5
3A12
331
419C
  5
40B4
331
39D3
  5
39D3
331
4016
  5
4288
331
41A4
  5
40C7
331
40B1
  5
4099
331
39E3
  5
39E3
331
3A80
  5
3A80
331
3F23
  5
3F23
331
3EEC
  5
3EEC
331
3DA5
  5
3DA5
331
3B16
  5
3B16
331
3AC7
  5
3AC7
331
3A88
  5
3A88
331
3A49
  5
3A49
331
4208
  5
4126
331
409A
  5
3FFD
331
3F2B
  5
3F2B
331
3EF4
  5
3EF4
331
3DAD
  5
3DAD
331
3A98
  5
3A98
331
4286
  5
4165
331
4210
  5
412A
331
40A2
  5
401B
331
3F33
  5
3F33
331
3EFC
  5
3EFC
331
3DB5
  5
3DB5
331
3AE7
  5
3AE7
331
3A59
  5
3A59
331
43B9
  5
43B9
331
428E
  5
4169
331
4218
  5
412E
331
3DBD
  5
3DBD
331
3AEF
  5
3AEF
331
42D2
  5
42D2
331
4123
  5
4254
331
4296
  5
4295
331
416F
  5
41D2
331
439E
  5
439E
331
429B
  5
42AE
331
434C
  5
4346
331
42A3
  5
42B2
331
42AB
  5
42B6
331
3FC0
  5
4266
331
40CD
  5
40A1
331
4092
  5
3FDA
331
39EB
  5
39EB
331
402A
  5
4290
331
39F3
  5
39F3
331
43C9
  5
43C9
331
3FD0
  5
426C
331
39FB
  5
39FB
331
4007
  5
4282
331
3AA0
  5
3AA0
331
3A22
  5
3A22
331
406B
  5
3FD5
331
3F04
  5
3F04
331
3DC5
  5
3DC5
331
3AA8
  5
3AA8
331
4220
  5
4132
331
41AA
  5
40D9
331
3F0C
  5
3F0C
331
3DCD
  5
3DCD
331
3D6E
  5
3D6E
331
3AFF
  5
3AFF
331
3AB0
  5
3AB0
331
3A71
  5
3A71
331
414C
  5
4190
331
4156
  5
4173
331
4228
  5
4136
331
41B2
  5
40FB
331
3F14
  5
3F14
331
3EDD
  5
3EDD
331
3D96
  5
3D96
331
3B07
  5
3B07
331
3AB8
  5
3AB8
331
3A3A
  5
3A3A
331
4138
  5
4240
331
4142
  5
417C
331
415C
  5
4174
331
4230
  5
413A
331
41BA
  5
40FF
331
3F1C
  5
3F1C
331
3EE5
  5
3EE5
331
3D9E
  5
3D9E
331
3B0F
  5
3B0F
331
42B3
  5
42BA
331
40FC
  5
420C
331
410E
  5
41E0
331
4170
  5
41A4
331
4238
  5
413E
331
41C2
  5
4103
331
42BB
  5
42BE
331
4104
  5
4220
331
4116
  5
41FC
331
4178
  5
41AA
331
42C3
  5
42CF
331
411E
  5
4250
331
4134
  5
4232
331
4160
  5
41C4
331
42CB
  5
42C4
331
42EE
  5
42EE
331
412C
  5
422C
331
40AE
  5
4096
331
39D4
  5
39D4
331
39E4
  5
39E4
331
3AC0
  5
3AC0
331
3F24
  5
3F24
331
3EED
  5
3EED
331
3DA6
  5
3DA6
331
3B17
  5
3B17
331
3AC8
  5
3AC8
331
3A4A
  5
3A4A
331
4240
  5
4142
331
41CA
  5
4107
331
409B
  5
4002
331
3F2C
  5
3F2C
331
3EF5
  5
3EF5
331
3DAE
  5
3DAE
331
3B1F
  5
3B1F
331
3A52
  5
3A52
331
4248
  5
4146
331
41D2
  5
410B
331
40A3
  5
4020
331
3F34
  5
3F34
331
3EFD
  5
3EFD
331
3DB6
  5
3DB6
331
3AE8
  5
3AE8
331
3A5A
  5
3A5A
331
43BA
  5
43BA
331
4168
  5
41D8
331
4250
  5
414A
331
41DA
  5
410F
331
3F3C
  5
3F3C
331
3DBE
  5
3DBE
331
4297
  5
42AC
331
4124
  5
4260
331
4258
  5
414E
331
41E2
  5
4113
331
439F
  5
439F
331
429C
  5
4298
331
42A4
  5
429C
331
42AC
  5
42A0
331
39EC
  5
39EC
331
3FF8
  5
427C
331
4182
  5
40A5
331
39F4
  5
39F4
331
39FC
  5
39FC
331
418E
  5
40AB
331
3AF0
  5
3AF0
331
3A23
  5
3A23
331
3F05
  5
3F05
331
3DC6
  5
3DC6
331
3AA9
  5
3AA9
331
3A6A
  5
3A6A
331
4260
  5
4152
331
41EA
  5
4117
331
3F0D
  5
3F0D
331
3B00
  5
3B00
331
3AB1
  5
3AB1
331
3A72
  5
3A72
331
3A33
  5
3A33
331
414D
  5
418E
331
4157
  5
4179
331
4268
  5
4156
331
41F2
  5
411B
331
3F15
  5
3F15
331
3EDE
  5
3EDE
331
3D97
  5
3D97
331
3B08
  5
3B08
331
3A3B
  5
3A3B
331
4139
  5
4236
331
4143
  5
417F
331
415D
  5
4177
331
4270
  5
415A
331
41FA
  5
411F
331
3F1D
  5
3F1D
331
3EE6
  5
3EE6
331
3D9F
  5
3D9F
331
42B4
  5
42A4
331
4316
  5
4316
331
40FD
  5
4202
331
410F
  5
41DE
331
4171
  5
41A2
331
4278
  5
415E
331
4202
  5
4123
331
42BC
  5
42A8
331
4105
  5
421E
331
4117
  5
41F2
331
4179
  5
41B6
331
42C4
  5
42CB
331
411F
  5
4246
331
4135
  5
423E
331
4161
  5
41CA
331
412D
  5
422A
331
4196
  5
40AF
331
40AF
  5
4097
331
39CD
  5
39CD
331
3A14
  5
3A14
331
419E
  5
40B5
331
39D5
  5
39D5
331
3FE9
  5
4276
331
41A6
  5
40CD
331
39DD
  5
39DD
331
40C7
  5
409F
331
39E5
  5
39E5
331
3B10
  5
3B10
331
3F25
  5
3F25
331
3EEE
  5
3EEE
331
3DA7
  5
3DA7
331
3B18
  5
3B18
331
3A8A
  5
3A8A
331
3A4B
  5
3A4B
331
4280
  5
4162
331
420A
  5
4127
331
409C
  5
4007
331
3F2D
  5
3F2D
331
3EF6
  5
3EF6
331
3DAF
  5
3DAF
331
3A9A
  5
3A9A
331
4288
  5
4166
331
4212
  5
412B
331
40A4
  5
4025
331
3F35
  5
3F35
331
3EFE
  5
3EFE
331
3DB7
  5
3DB7
331
3AE9
  5
3AE9
331
3A5B
  5
3A5B
331
4338
  5
438D
331
43BB
  5
43BB
331
4169
  5
41D6
331
4290
  5
416A
331
421A
  5
412F
331
3F3D
  5
3F3D
331
3DBF
  5
3DBF
331
4125
  5
425E
331
43A0
  5
43A0
331
4346
  5
4340
331
429D
  5
42AF
331
42A5
  5
42B3
331
430F
  5
430F
331
42AD
  5
42B7
331
4020
  5
428C
331
4094
  5
3FDF
331
39ED
  5
39ED
331
40DF
  5
40A4
331
3AF1
  5
3AF1
331
3F06
  5
3F06
331
3DC7
  5
3DC7
331
4150
  5
4172
331
4222
  5
4133
331
41AC
  5
40DF
331
3F0E
  5
3F0E
331
3B01
  5
3B01
331
3A73
  5
3A73
331
414E
  5
4170
331
422A
  5
4137
331
41B4
  5
40FC
331
3F16
  5
3F16
331
3EDF
  5
3EDF
331
3D98
  5
3D98
331
3B09
  5
3B09
331
3ABA
  5
3ABA
331
3A7B
  5
3A7B
331
3A3C
  5
3A3C
331
413A
  5
4234
331
4108
  5
4218
331
4144
  5
417E
331
415E
  5
4176
331
4232
  5
413B
331
41BC
  5
4100
331
3F1E
  5
3F1E
331
3EE7
  5
3EE7
331
42B5
  5
42BB
331
40FE
  5
4200
331
4110
  5
41E4
331
43AC
  5
43AC
331
4172
  5
41A8
331
423A
  5
413F
331
41C4
  5
4104
331
42BD
  5
42BF
331
4106
  5
4214
331
4118
  5
41F0
331
417A
  5
41B4
331
42C5
  5
42C7
331
4136
  5
423C
331
43B4
  5
43B4
331
4162
  5
41C8
331
42CD
  5
42C5
331
412E
  5
4230
331
3FDA
  5
4270
331
40A8
  5
4069
331
3A0D
  5
3A0D
331
3A15
  5
3A15
331
4011
  5
4286
331
39D6
  5
39D6
331
40B4
  5
409B
331
39DE
  5
39DE
331
39E6
  5
39E6
331
3DA0
  5
3DA0
331
3B11
  5
3B11
331
3AC2
  5
3AC2
331
3A83
  5
3A83
331
3A44
  5
3A44
331
3F26
  5
3F26
331
3EEF
  5
3EEF
331
3DA8
  5
3DA8
331
3B19
  5
3B19
331
3A8B
  5
3A8B
331
4242
  5
4143
331
41CC
  5
4108
331
409D
  5
400C
331
3F2E
  5
3F2E
331
3EF7
  5
3EF7
331
3DB0
  5
3DB0
331
3AE2
  5
3AE2
331
3A9B
  5
3A9B
331
3A54
  5
3A54
331
424A
  5
4147
331
41D4
  5
410C
331
40A5
  5
402A
331
3F36
  5
3F36
331
3EFF
  5
3EFF
331
3DB8
  5
3DB8
331
3AEA
  5
3AEA
331
43BC
  5
43BC
331
416A
  5
41DC
331
4252
  5
414B
331
41DC
  5
4110
331
3F3E
  5
3F3E
331
4352
  5
434C
331
4126
  5
4264
331
425A
  5
414F
331
41E4
  5
4114
331
429E
  5
4299
331
4308
  5
4308
331
42A6
  5
429D
331
42AE
  5
42A1
331
4095
  5
3FE4
331
3FCB
  5
426A
331
4184
  5
40A6
331
39F6
  5
39F6
331
4002
  5
4280
331
4188
  5
40A8
331
39FE
  5
39FE
331
3A06
  5
3A06
331
3DC0
  5
3DC0
331
3D61
  5
3D61
331
3AF2
  5
3AF2
331
3F07
  5
3F07
331
3DC8
  5
3DC8
331
4151
  5
4171
331
4262
  5
4153
331
41EC
  5
4118
331
3F0F
  5
3F0F
331
3D91
  5
3D91
331
3B02
  5
3B02
331
3AB3
  5
3AB3
331
414F
  5
416F
331
426A
  5
4157
331
41F4
  5
411C
331
3F17
  5
3F17
331
3EE0
  5
3EE0
331
3D99
  5
3D99
331
3B0A
  5
3B0A
331
3ABB
  5
3ABB
331
3A7C
  5
3A7C
331
413B
  5
423A
331
4109
  5
4216
331
415F
  5
41C6
331
4145
  5
4188
331
4272
  5
415B
331
41FC
  5
4120
331
3F1F
  5
3F1F
331
42B6
  5
42A5
331
40FF
  5
4206
331
4111
  5
41E2
331
4173
  5
41A6
331
427A
  5
415F
331
4204
  5
4124
331
42BE
  5
42A9
331
4107
  5
4212
331
4119
  5
41F6
331
417B
  5
41BA
331
42C6
  5
42C9
331
4137
  5
4242
331
43B5
  5
43B5
331
4163
  5
41BE
331
412F
  5
422E
331
4190
  5
40AC
331
40A9
  5
406A
331
4198
  5
40B0
331
3A0E
  5
3A0E
331
41A0
  5
40BB
331
3A1E
  5
3A1E
331
40C1
  5
409E
331
40B5
  5
409C
331
39DF
  5
39DF
331
39E7
  5
39E7
331
3EE8
  5
3EE8
331
3DA1
  5
3DA1
331
3B12
  5
3B12
331
3A45
  5
3A45
331
3F27
  5
3F27
331
3EF0
  5
3EF0
331
3DA9
  5
3DA9
331
3ACB
  5
3ACB
331
4282
  5
4163
331
420C
  5
4128
331
409E
  5
4011
331
3F2F
  5
3F2F
331
3EF8
  5
3EF8
331
3DB1
  5
3DB1
331
3AE3
  5
3AE3
331
3A9C
  5
3A9C
331
3A55
  5
3A55
331
428A
  5
4167
331
4214
  5
412C
331
40A6
  5
402E
331
3F37
  5
3F37
331
3DB9
  5
3DB9
331
3AEB
  5
3AEB
331
43BD
  5
43BD
331
416B
  5
41DA
331
421C
  5
4130
331
3F3F
  5
3F3F
331
43C5
  5
43C8
331
4340
  5
4338
331
4127
  5
4262
331
429F
  5
42B0
331
42A7
  5
42B4
331
42AF
  5
42B8
  0
XRECORD
  5
4568
102
{ACAD_REACTORS
330
4567
102
}
330
4567
100
AcDbXrecord
280
     1
 40
83781.0
  1
Delnr. 23 af 3af\P11045m²\Ph.v. 5263m²
  0
XRECORD
  5
456A
102
{ACAD_REACTORS
330
4569
102
}
330
4569
100
AcDbXrecord
280
     1
 40
64714.0
  1
Remmerslundvej - priv. fællesvej
  0
LAYOUT
  5
44C6
102
{ACAD_XDICTIONARY
360
456E
102
}
102
{ACAD_REACTORS
330
44C2
102
}
330
44C2
100
AcDbPlotSettings
  1

  2

  4

  6

 40
0.0
 41
0.0
 42
0.0
 43
0.0
 44
0.0
 45
0.0
 46
0.0
 47
0.0
 48
0.0
 49
0.0
140
0.0
141
0.0
142
1.0
143
1.0
 70
   688
 72
     0
 73
     0
 74
     5
  7

 75
    16
147
1.0
148
0.0
149
0.0
100
AcDbLayout
  1
Layout1
 70
     1
 71
     1
 10
0.0
 20
0.0
 11
12.0
 21
9.0
 12
0.0
 22
0.0
 32
0.0
 14
1.000000E+20
 24
1.000000E+20
 34
1.000000E+20
 15
-1.000000E+20
 25
-1.000000E+20
 35
-1.000000E+20
146
0.0
 13
0.0
 23
0.0
 33
0.0
 16
1.0
 26
0.0
 36
0.0
 17
0.0
 27
1.0
 37
0.0
 76
     0
330
44C3
  0
LAYOUT
  5
44C1
102
{ACAD_XDICTIONARY
360
456C
102
}
102
{ACAD_REACTORS
330
44C2
102
}
330
44C2
100
AcDbPlotSettings
  1

  2

  4

  6

 40
0.0
 41
0.0
 42
0.0
 43
0.0
 44
0.0
 45
0.0
 46
0.0
 47
0.0
 48
0.0
 49
0.0
140
0.0
141
0.0
142
1.0
143
1.0
 70
  1712
 72
     0
 73
     0
 74
     0
  7

 75
     0
147
1.0
148
0.0
149
0.0
100
AcDbLayout
  1
Model
 70
     1
 71
     0
 10
0.0
 20
0.0
 11
12.0
 21
9.0
 12
0.0
 22
0.0
 32
0.0
 14
0.0
 24
0.0
 34
0.0
 15
0.0
 25
0.0
 35
0.0
146
0.0
 13
0.0
 23
0.0
 33
0.0
 16
1.0
 26
0.0
 36
0.0
 17
0.0
 27
1.0
 37
0.0
 76
     0
330
44B0
  0
MATERIAL
  5
44E3
102
{ACAD_XDICTIONARY
360
44E4
102
}
102
{ACAD_REACTORS
330
44B7
102
}
330
44B7
100
AcDbMaterial
  1
ByBlock
 72
     0
 43
0.82021
 43
0.0
 43
0.0
 43
0.0
 43
0.0
 43
0.82021
 43
0.0
 43
0.0
 43
0.0
 43
0.0
 43
1.0
 43
0.0
 43
0.0
 43
0.0
 43
0.0
 43
1.0
 77
     0
 47
0.82021
 47
0.0
 47
0.0
 47
0.0
 47
0.0
 47
0.82021
 47
0.0
 47
0.0
 47
0.0
 47
0.0
 47
1.0
 47
0.0
 47
0.0
 47
0.0
 47
0.0
 47
1.0
171
     0
 49
0.82021
 49
0.0
 49
0.0
 49
0.0
 49
0.0
 49
0.82021
 49
0.0
 49
0.0
 49
0.0
 49
0.0
 49
1.0
 49
0.0
 49
0.0
 49
0.0
 49
0.0
 49
1.0
175
     0
142
0.82021
142
0.0
142
0.0
142
0.0
142
0.0
142
0.82021
142
0.0
142
0.0
142
0.0
142
0.0
142
1.0
142
0.0
142
0.0
142
0.0
142
0.0
142
1.0
179
     0
144
0.82021
144
0.0
144
0.0
144
0.0
144
0.0
144
0.82021
144
0.0
144
0.0
144
0.0
144
0.0
144
1.0
144
0.0
144
0.0
144
0.0
144
0.0
144
1.0
147
0.82021
147
0.0
147
0.0
147
0.0
147
0.0
147
0.82021
147
0.0
147
0.0
147
0.0
147
0.0
147
1.0
147
0.0
147
0.0
147
0.0
147
0.0
147
1.0
  0
MATERIAL
  5
44DB
102
{ACAD_XDICTIONARY
360
44DC
102
}
102
{ACAD_REACTORS
330
44B7
102
}
330
44B7
100
AcDbMaterial
  1
ByLayer
 72
     0
 43
0.82021
 43
0.0
 43
0.0
 43
0.0
 43
0.0
 43
0.82021
 43
0.0
 43
0.0
 43
0.0
 43
0.0
 43
1.0
 43
0.0
 43
0.0
 43
0.0
 43
0.0
 43
1.0
 77
     0
 47
0.82021
 47
0.0
 47
0.0
 47
0.0
 47
0.0
 47
0.82021
 47
0.0
 47
0.0
 47
0.0
 47
0.0
 47
1.0
 47
0.0
 47
0.0
 47
0.0
 47
0.0
 47
1.0
171
     0
 49
0.82021
 49
0.0
 49
0.0
 49
0.0
 49
0.0
 49
0.82021
 49
0.0
 49
0.0
 49
0.0
 49
0.0
 49
1.0
 49
0.0
 49
0.0
 49
0.0
 49
0.0
 49
1.0
175
     0
142
0.82021
142
0.0
142
0.0
142
0.0
142
0.0
142
0.82021
142
0.0
142
0.0
142
0.0
142
0.0
142
1.0
142
0.0
142
0.0
142
0.0
142
0.0
142
1.0
179
     0
144
0.82021
144
0.0
144
0.0
144
0.0
144
0.0
144
0.82021
144
0.0
144
0.0
144
0.0
144
0.0
144
1.0
144
0.0
144
0.0
144
0.0
144
0.0
144
1.0
147
0.82021
147
0.0
147
0.0
147
0.0
147
0.0
147
0.82021
147
0.0
147
0.0
147
0.0
147
0.0
147
1.0
147
0.0
147
0.0
147
0.0
147
0.0
147
1.0
  0
MATERIAL
  5
44B6
102
{ACAD_XDICTIONARY
360
44B8
102
}
102
{ACAD_REACTORS
330
44B7
102
}
330
44B7
100
AcDbMaterial
  1
Global
 72
     0
 43
0.82021
 43
0.0
 43
0.0
 43
0.0
 43
0.0
 43
0.82021
 43
0.0
 43
0.0
 43
0.0
 43
0.0
 43
1.0
 43
0.0
 43
0.0
 43
0.0
 43
0.0
 43
1.0
 76
     1
 45
0.05
 77
     0
 47
0.82021
 47
0.0
 47
0.0
 47
0.0
 47
0.0
 47
0.82021
 47
0.0
 47
0.0
 47
0.0
 47
0.0
 47
1.0
 47
0.0
 47
0.0
 47
0.0
 47
0.0
 47
1.0
171
     0
 49
0.82021
 49
0.0
 49
0.0
 49
0.0
 49
0.0
 49
0.82021
 49
0.0
 49
0.0
 49
0.0
 49
0.0
 49
1.0
 49
0.0
 49
0.0
 49
0.0
 49
0.0
 49
1.0
175
     0
179
     0
144
0.82021
144
0.0
144
0.0
144
0.0
144
0.0
144
0.82021
144
0.0
144
0.0
144
0.0
144
0.0
144
1.0
144
0.0
144
0.0
144
0.0
144
0.0
144
1.0
147
0.82021
147
0.0
147
0.0
147
0.0
147
0.0
147
0.82021
147
0.0
147
0.0
147
0.0
147
0.0
147
1.0
147
0.0
147
0.0
147
0.0
147
0.0
147
1.0
  0
MLINESTYLE
  5
44EF
102
{ACAD_REACTORS
330
44D9
102
}
330
44D9
100
AcDbMlineStyle
  2
STANDARD
 70
     0
  3

 62
   256
 51
90.0
 52
90.0
 71
     2
 49
0.5
 62
   256
  6
BYLAYER
 49
-0.5
 62
   256
  6
BYLAYER
  0
ACDBPLACEHOLDER
  5
44B3
102
{ACAD_REACTORS
330
44B4
102
}
330
44B4
  0
SCALE
  5
44F4
102
{ACAD_REACTORS
330
44EC
102
}
330
44EC
100
AcDbScale
 70
     0
300
1:1
140
1.0
141
1.0
290
     1
  0
SCALE
  5
44F5
102
{ACAD_REACTORS
330
44EC
102
}
330
44EC
100
AcDbScale
 70
     0
300
1/128" = 1'-0"
140
0.007813
141
12.0
290
     0
  0
SCALE
  5
44F6
102
{ACAD_REACTORS
330
44EC
102
}
330
44EC
100
AcDbScale
 70
     0
300
1/64" = 1'-0"
140
0.015625
141
12.0
290
     0
  0
SCALE
  5
44F7
102
{ACAD_REACTORS
330
44EC
102
}
330
44EC
100
AcDbScale
 70
     0
300
1/32" = 1'-0"
140
0.03125
141
12.0
290
     0
  0
SCALE
  5
44F8
102
{ACAD_REACTORS
330
44EC
102
}
330
44EC
100
AcDbScale
 70
     0
300
1/16" = 1'-0"
140
0.0625
141
12.0
290
     0
  0
SCALE
  5
44F9
102
{ACAD_REACTORS
330
44EC
102
}
330
44EC
100
AcDbScale
 70
     0
300
3/32" = 1'-0"
140
0.09375
141
12.0
290
     0
  0
SCALE
  5
44FA
102
{ACAD_REACTORS
330
44EC
102
}
330
44EC
100
AcDbScale
 70
     0
300
1/8" = 1'-0"
140
0.125
141
12.0
290
     0
  0
SCALE
  5
44FB
102
{ACAD_REACTORS
330
44EC
102
}
330
44EC
100
AcDbScale
 70
     0
300
3/16" = 1'-0"
140
0.1875
141
12.0
290
     0
  0
SCALE
  5
44FC
102
{ACAD_REACTORS
330
44EC
102
}
330
44EC
100
AcDbScale
 70
     0
300
1/4" = 1'-0"
140
0.25
141
12.0
290
     0
  0
SCALE
  5
44FD
102
{ACAD_REACTORS
330
44EC
102
}
330
44EC
100
AcDbScale
 70
     0
300
3/8" = 1'-0"
140
0.375
141
12.0
290
     0
  0
SCALE
  5
44FE
102
{ACAD_REACTORS
330
44EC
102
}
330
44EC
100
AcDbScale
 70
     0
300
1/2" = 1'-0"
140
0.5
141
12.0
290
     0
  0
SCALE
  5
44FF
102
{ACAD_REACTORS
330
44EC
102
}
330
44EC
100
AcDbScale
 70
     0
300
3/4" = 1'-0"
140
0.75
141
12.0
290
     0
  0
SCALE
  5
4500
102
{ACAD_REACTORS
330
44EC
102
}
330
44EC
100
AcDbScale
 70
     0
300
1" = 1'-0"
140
1.0
141
12.0
290
     0
  0
SCALE
  5
4501
102
{ACAD_REACTORS
330
44EC
102
}
330
44EC
100
AcDbScale
 70
     0
300
1-1/2" = 1'-0"
140
1.5
141
12.0
290
     0
  0
SCALE
  5
4502
102
{ACAD_REACTORS
330
44EC
102
}
330
44EC
100
AcDbScale
 70
     0
300
3" = 1'-0"
140
3.0
141
12.0
290
     0
  0
SCALE
  5
4503
102
{ACAD_REACTORS
330
44EC
102
}
330
44EC
100
AcDbScale
 70
     0
300
6" = 1'-0"
140
6.0
141
12.0
290
     0
  0
SCALE
  5
4504
102
{ACAD_REACTORS
330
44EC
102
}
330
44EC
100
AcDbScale
 70
     0
300
1'-0" = 1'-0"
140
12.0
141
12.0
290
     0
  0
TABLESTYLE
  5
44F0
102
{ACAD_XDICTIONARY
360
4563
102
}
102
{ACAD_REACTORS
330
44ED
102
}
330
44ED
100
AcDbTableStyle
  3
Standard
 70
     0
 71
     0
 40
0.06
 41
0.06
280
     0
281
     0
  7
Standard
140
0.18
170
     2
 62
     0
 63
     7
283
     0
274
    -2
284
     1
 64
     0
275
    -2
285
     1
 65
     0
276
    -2
286
     1
 66
     0
277
    -2
287
     1
 67
     0
278
    -2
288
     1
 68
     0
279
    -2
289
     1
 69
     0
  7
Standard
140
0.25
170
     5
 62
     0
 63
     7
283
     0
274
    -2
284
     1
 64
     0
275
    -2
285
     1
 65
     0
276
    -2
286
     1
 66
     0
277
    -2
287
     1
 67
     0
278
    -2
288
     1
 68
     0
279
    -2
289
     1
 69
     0
  7
Standard
140
0.18
170
     5
 62
     0
 63
     7
283
     0
274
    -2
284
     1
 64
     0
275
    -2
285
     1
 65
     0
276
    -2
286
     1
 66
     0
277
    -2
287
     1
 67
     0
278
    -2
288
     1
 68
     0
279
    -2
289
     1
 69
     0
  0
VISUALSTYLE
  5
44D2
102
{ACAD_XDICTIONARY
360
4570
102
}
102
{ACAD_REACTORS
330
44D3
102
}
330
44D3
100
AcDbVisualStyle
  2
2dWireframe
 70
     4
 71
     0
 72
     2
 73
     0
 90
        0
 40
-0.6
 41
-30.0
 62
     5
 63
     7
 74
     1
 91
        4
 64
     7
 65
   257
 75
     1
175
     1
 42
1.0
 92
        0
 66
   257
 43
1.0
 76
     1
 77
     6
 78
     2
 67
     7
 79
     5
170
     0
171
     0
290
     0
174
     0
 93
        1
 44
0.0
173
     0
291
     0
 45
0.0
1001
ACAD
1000
AcDbSavedByObjectVersion
1070
     0
  0
VISUALSTYLE
  5
44F1
102
{ACAD_XDICTIONARY
360
4575
102
}
102
{ACAD_REACTORS
330
44D3
102
}
330
44D3
100
AcDbVisualStyle
  2
Realistic
 70
     8
 71
     2
 72
     3
 73
     0
 90
        2
 40
-0.6
 41
30.0
 62
     5
 63
     7
 74
     0
 91
        0
 64
     7
 65
   257
 75
     1
175
     1
 42
1.0
 92
        8
 66
   257
 43
1.0
 76
     1
 77
     6
 78
     2
 67
     7
 79
     3
170
     0
171
     0
290
     0
174
     0
 93
       13
 44
0.0
173
     0
291
     0
 45
0.0
1001
ACAD
1000
AcDbSavedByObjectVersion
1070
     0
  0
VISUALSTYLE
  5
44F2
102
{ACAD_XDICTIONARY
360
4577
102
}
102
{ACAD_REACTORS
330
44D3
102
}
330
44D3
100
AcDbVisualStyle
  2
Wireframe
 70
     5
 71
     0
 72
     2
 73
     0
 90
        0
 40
-0.6
 41
-30.0
 62
     5
 63
     7
 74
     1
 91
        4
 64
     7
 65
   257
 75
     1
175
     1
 42
1.0
 92
        0
 66
   257
 43
1.0
 76
     1
 77
     6
 78
     2
 67
     7
 79
     3
170
     0
171
     0
290
     0
174
     0
 93
        1
 44
0.0
173
     0
291
     0
 45
0.0
1001
ACAD
1000
AcDbSavedByObjectVersion
1070
     0
  0
DICTIONARYVAR
  5
455B
102
{ACAD_REACTORS
330
4556
102
}
330
4556
100
DictionaryVariables
280
     0
  1
1:1
  0
DICTIONARYVAR
  5
4558
102
{ACAD_REACTORS
330
4556
102
}
330
4556
100
DictionaryVariables
280
     0
  1
STANDARD
  0
DICTIONARYVAR
  5
4557
102
{ACAD_REACTORS
330
4556
102
}
330
4556
100
DictionaryVariables
280
     0
  1
STANDARD
  0
DICTIONARYVAR
  5
4559
102
{ACAD_REACTORS
330
4556
102
}
330
4556
100
DictionaryVariables
280
     0
  1

  0
DICTIONARYVAR
  5
455A
102
{ACAD_REACTORS
330
4556
102
}
330
4556
100
DictionaryVariables
280
     0
  1

  0
DICTIONARYVAR
  5
455F
102
{ACAD_REACTORS
330
4556
102
}
330
4556
100
DictionaryVariables
280
     0
  1
1
  0
DICTIONARYVAR
  5
455E
102
{ACAD_REACTORS
330
4556
102
}
330
4556
100
DictionaryVariables
280
     0
  1
1
  0
DICTIONARYVAR
  5
455D
102
{ACAD_REACTORS
330
4556
102
}
330
4556
100
DictionaryVariables
280
     0
  1
0
  0
DICTIONARYVAR
  5
4560
102
{ACAD_REACTORS
330
4556
102
}
330
4556
100
DictionaryVariables
280
     0
  1
0
  0
DICTIONARYVAR
  5
455C
102
{ACAD_REACTORS
330
4556
102
}
330
4556
100
DictionaryVariables
280
     0
  1
127
  0
DICTIONARYVAR
  5
4561
102
{ACAD_REACTORS
330
4556
102
}
330
4556
100
DictionaryVariables
280
     0
  1
2
  0
XRECORD
  5
395B
102
{ACAD_REACTORS
330
453F
102
}
330
453F
100
AcDbXrecord
280
     1
310
B6000010D805000002000000000000000000000000000000E55458413B5C8DFCEB3F58412A3A92CB7F4454C0EC2FBB270F5756C00EBE30992AF05CC0B8019F1F4608DFBF527E52EDD3F198BF8B54185B0872DABF94DE37BEF64CE1BF00000000000000000000000000000000000000000000000000000000640000000A0000
310
00761B00003C000000000000003E0000006D00636D5333344A00000000000000000000000000000000000000004555524F50450000000000000000000000000000000000005333344A0000000000000000000000000000000000000000535953544D33342D3939000000000000000000000000000044616E69736820537973
310
74656D20313933342F3139343520284B4D53203139393920506F6C796E6F6D69616C73290000000000000000000000000000000000004575726F7065616E20313935302C2044656E6D61726B2C20666F722053797374656D203334000000000000000000000000000000000000000000000000000000486179666F72642C20
310
313932342028616B612031393039293B2073616D6520617320496E7465726E6174696F6E616C203139323400000000000000000000000044616E6973682053797374656D203139333420284E6F762031393939292C204A796C6C616E642C204575726F7065203139353020626173656400000000000000566172696F75732C
310
206D6F73746C7920696E666F726D6174696F6E2066726F6D204B6F72742026204D617472696B656C73747972656C73656E000000000000000000000000000000000000000000000009000000A00F0000000000003D000000000017810000000000000000000000000000000000000000000000000000000000000000000000
310
00000000000000000000000000000000000000000000000000000000000000000000000000000000000000000000000000000000000000000000000000000000000000000000000000000000000000000000000000000000000000000000000000000000000000000000000000000000000000000000000000000000000000
310
00000000000000000000000000000000000000000000000000000000000000000000000000000000000000000000000000000000000000000000000000000000000000000000000000000000000000000000000000000000000000000000000000000100000000000000000000000000000000000000000000000000000000
310
0018400000000000804A4000000000000024400000000000404D400000000000000000000000000000000000000000000000000000000000000000000000000000F03F010000004D455445520000000000000000000000454435302D444B333400000000000000000000000000000000000000000000000000000000000000
310
00000000000000000000000000000000000000000000000000000000000000000000000000000000000000000000000000000000000000000000000000000000000000000000000000000000000000000000000000000000000000000000000000000000000000000000000000000000000000000000000000000000000000
310
00000000000000000000000000000000000000000000000000000000000000000000000000000000000000000000000000000000000000000000000000000000000000000000000000000000000000000000000000000000000000000000000000000000000000000000000000000000000000000000000000000000000000
310
00000000000000000000000000000000000000000000000000000000000000000000000000000000000000000000000000000000000000000000000000000000000000000000000000000000000000000000000000000000000000000000000000000000000000000000000000000000000000000000000000000000000000
310
00000000000000000000000000000000000000000000000000000000000000000000000000000000000000000000000000000000000000000000000000000000000000000000000000000000000000000000000000000000000000000000000000000000000000
  0
DICTIONARY
  5
456E
330
44C6
100
AcDbDictionary
280
     1
281
     1
  3
ACAD_XREC_ROUNDTRIP
360
456F
  0
DICTIONARY
  5
456C
330
44C1
100
AcDbDictionary
280
     1
281
     1
  3
ACAD_XREC_ROUNDTRIP
360
456D
  0
DICTIONARY
  5
44E4
330
44E3
100
AcDbDictionary
280
     1
281
     1
  3
ACAD_XREC_ROUNDTRIP
360
4573
  3
BUMPTILE
360
44E5
  3
DIFFUSETILE
360
44E6
  3
OPACITYTILE
360
44E7
  3
REFLECTIONTILE
360
44E8
  3
REFRACTIONTILE
360
44E9
  3
SPECULARTILE
360
44EA
  0
DICTIONARY
  5
44DC
330
44DB
100
AcDbDictionary
280
     1
281
     1
  3
ACAD_XREC_ROUNDTRIP
360
4572
  3
BUMPTILE
360
44DD
  3
DIFFUSETILE
360
44DE
  3
OPACITYTILE
360
44DF
  3
REFLECTIONTILE
360
44E0
  3
REFRACTIONTILE
360
44E1
  3
SPECULARTILE
360
44E2
  0
DICTIONARY
  5
44B8
330
44B6
100
AcDbDictionary
280
     1
281
     1
  3
ACAD_XREC_ROUNDTRIP
360
456B
  3
ADVMATERIAL
360
4505
  3
BUMPTILE
360
44B9
  3
DIFFUSETILE
360
44BA
  3
OPACITYTILE
360
44BB
  3
REFLECTIONTILE
360
44BC
  3
REFRACTIONTILE
360
44BD
  3
SPECULARTILE
360
44BE
  0
DICTIONARY
  5
4563
330
44F0
100
AcDbDictionary
280
     1
281
     1
  3
ACAD_ROUNDTRIP_2008_TABLESTYLE_CELLSTYLEMAP
360
4564
  3
ACAD_XREC_ROUNDTRIP
360
4574
  0
DICTIONARY
  5
4570
330
44D2
100
AcDbDictionary
280
     1
281
     1
  3
ACAD_XREC_ROUNDTRIP
360
4571
  0
DICTIONARY
  5
4575
330
44F1
100
AcDbDictionary
280
     1
281
     1
  3
ACAD_XREC_ROUNDTRIP
360
4576
  0
DICTIONARY
  5
4577
330
44F2
100
AcDbDictionary
280
     1
281
     1
  3
ACAD_XREC_ROUNDTRIP
360
4578
  0
XRECORD
  5
456F
102
{ACAD_REACTORS
330
456E
102
}
330
456E
100
AcDbXrecord
280
     1
102
SHADEPLOT
 70
     0
102
SHADEPLOTRESLEVEL
 70
     2
102
SHADEPLOTCUSTOMDPI
 70
   300
  0
XRECORD
  5
456D
102
{ACAD_REACTORS
330
456C
102
}
330
456C
100
AcDbXrecord
280
     1
102
SHADEPLOT
 70
     0
102
SHADEPLOTRESLEVEL
 70
     2
102
SHADEPLOTCUSTOMDPI
 70
   300
  0
XRECORD
  5
4573
102
{ACAD_REACTORS
330
44E4
102
}
330
44E4
100
AcDbXrecord
280
     1
102
MATERIAL
148
0.0
149
0.0
149
0.0
 93
        0
 94
      127
282
     0
 72
     0
 77
     0
171
     0
175
     0
179
     0
273
     0
  0
XRECORD
  5
44E5
102
{ACAD_REACTORS
330
44E4
102
}
330
44E4
100
AcDbXrecord
280
     1
270
     1
271
     1
  0
XRECORD
  5
44E6
102
{ACAD_REACTORS
330
44E4
102
}
330
44E4
100
AcDbXrecord
280
     1
270
     1
271
     1
  0
XRECORD
  5
44E7
102
{ACAD_REACTORS
330
44E4
102
}
330
44E4
100
AcDbXrecord
280
     1
270
     1
271
     1
  0
XRECORD
  5
44E8
102
{ACAD_REACTORS
330
44E4
102
}
330
44E4
100
AcDbXrecord
280
     1
270
     1
271
     1
  0
XRECORD
  5
44E9
102
{ACAD_REACTORS
330
44E4
102
}
330
44E4
100
AcDbXrecord
280
     1
270
     1
271
     1
  0
XRECORD
  5
44EA
102
{ACAD_REACTORS
330
44E4
102
}
330
44E4
100
AcDbXrecord
280
     1
270
     1
271
     1
  0
XRECORD
  5
4572
102
{ACAD_REACTORS
330
44DC
102
}
330
44DC
100
AcDbXrecord
280
     1
102
MATERIAL
148
0.0
149
0.0
149
0.0
 93
        0
 94
      127
282
     0
 72
     0
 77
     0
171
     0
175
     0
179
     0
273
     0
  0
XRECORD
  5
44DD
102
{ACAD_REACTORS
330
44DC
102
}
330
44DC
100
AcDbXrecord
280
     1
270
     1
271
     1
  0
XRECORD
  5
44DE
102
{ACAD_REACTORS
330
44DC
102
}
330
44DC
100
AcDbXrecord
280
     1
270
     1
271
     1
  0
XRECORD
  5
44DF
102
{ACAD_REACTORS
330
44DC
102
}
330
44DC
100
AcDbXrecord
280
     1
270
     1
271
     1
  0
XRECORD
  5
44E0
102
{ACAD_REACTORS
330
44DC
102
}
330
44DC
100
AcDbXrecord
280
     1
270
     1
271
     1
  0
XRECORD
  5
44E1
102
{ACAD_REACTORS
330
44DC
102
}
330
44DC
100
AcDbXrecord
280
     1
270
     1
271
     1
  0
XRECORD
  5
44E2
102
{ACAD_REACTORS
330
44DC
102
}
330
44DC
100
AcDbXrecord
280
     1
270
     1
271
     1
  0
XRECORD
  5
456B
102
{ACAD_REACTORS
330
44B8
102
}
330
44B8
100
AcDbXrecord
280
     1
102
MATERIAL
148
0.0
149
0.0
149
0.0
 93
        0
 94
       47
282
     0
 72
     0
 77
     0
171
     0
175
     0
179
     0
273
     0
  0
XRECORD
  5
4505
102
{ACAD_REACTORS
330
44B8
102
}
330
44B8
100
AcDbXrecord
280
     1
460
100.0
461
100.0
462
100.0
463
100.0
290
     0
270
     0
464
0.0
293
     0
272
     3
273
     3
  0
XRECORD
  5
44B9
102
{ACAD_REACTORS
330
44B8
102
}
330
44B8
100
AcDbXrecord
280
     1
270
     1
271
     1
  0
XRECORD
  5
44BA
102
{ACAD_REACTORS
330
44B8
102
}
330
44B8
100
AcDbXrecord
280
     1
270
     1
271
     1
  0
XRECORD
  5
44BB
102
{ACAD_REACTORS
330
44B8
102
}
330
44B8
100
AcDbXrecord
280
     1
270
     1
271
     1
  0
XRECORD
  5
44BC
102
{ACAD_REACTORS
330
44B8
102
}
330
44B8
100
AcDbXrecord
280
     1
270
     1
271
     1
  0
XRECORD
  5
44BD
102
{ACAD_REACTORS
330
44B8
102
}
330
44B8
100
AcDbXrecord
280
     1
270
     1
271
     1
  0
XRECORD
  5
44BE
102
{ACAD_REACTORS
330
44B8
102
}
330
44B8
100
AcDbXrecord
280
     1
270
     1
271
     1
  0
CELLSTYLEMAP
  5
4564
102
{ACAD_REACTORS
330
4563
102
}
330
4563
100
AcDbCellStyleMap
 90
        3
300
CELLSTYLE
  1
TABLEFORMAT_BEGIN
 90
        5
170
     1
 91
        0
 92
    32768
 62
   257
 93
        1
300
CONTENTFORMAT
  1
CONTENTFORMAT_BEGIN
 90
        0
 91
        0
 92
      512
 93
        0
300

 40
0.0
140
1.0
 94
        5
 62
     0
340
44C9
144
0.25
309
CONTENTFORMAT_END
171
     0
 94
        0
309
TABLEFORMAT_END
  1
CELLSTYLE_BEGIN
 90
        1
 91
        1
300
_TITLE
309
CELLSTYLE_END
300
CELLSTYLE
  1
TABLEFORMAT_BEGIN
 90
        5
170
     1
 91
        0
 92
        0
 62
   257
 93
        1
300
CONTENTFORMAT
  1
CONTENTFORMAT_BEGIN
 90
        0
 91
        0
 92
      512
 93
        0
300

 40
0.0
140
1.0
 94
        5
 62
     0
340
44C9
144
0.18
309
CONTENTFORMAT_END
171
     0
 94
        0
309
TABLEFORMAT_END
  1
CELLSTYLE_BEGIN
 90
        2
 91
        1
300
_HEADER
309
CELLSTYLE_END
300
CELLSTYLE
  1
TABLEFORMAT_BEGIN
 90
        5
170
     1
 91
        0
 92
        0
 62
   257
 93
        1
300
CONTENTFORMAT
  1
CONTENTFORMAT_BEGIN
 90
        0
 91
        0
 92
      512
 93
        0
300

 40
0.0
140
1.0
 94
        2
 62
     0
340
44C9
144
0.18
309
CONTENTFORMAT_END
171
     0
 94
        0
309
TABLEFORMAT_END
  1
CELLSTYLE_BEGIN
 90
        3
 91
        2
300
_DATA
309
CELLSTYLE_END
  0
XRECORD
  5
4574
102
{ACAD_REACTORS
330
4563
102
}
330
4563
100
AcDbXrecord
280
     1
102
ACAD_ROUNDTRIP_PRE2007_TABLESTYLE
 90
      512
 91
        0
  1

 92
      512
 93
        0
  2

 94
      512
 95
        0
  3

  0
XRECORD
  5
4571
102
{ACAD_REACTORS
330
4570
102
}
330
4570
100
AcDbXrecord
280
     1
102
RTVSPost2010Prop28
280
     1
102
RTVSPost2010PropOp28
 70
     1
102
RTVSPost2010Prop29
280
     1
102
RTVSPost2010PropOp29
 70
     1
102
RTVSPost2010Prop30
280
     0
102
RTVSPost2010PropOp30
 70
     1
102
RTVSPost2010Prop31
280
     0
102
RTVSPost2010PropOp31
 70
     1
102
RTVSPost2010Prop32
280
     0
102
RTVSPost2010PropOp32
 70
     1
102
RTVSPost2010Prop33
280
     0
102
RTVSPost2010PropOp33
 70
     1
102
RTVSPost2010Prop34
280
     0
102
RTVSPost2010PropOp34
 70
     1
102
RTVSPost2010Prop35
280
     0
102
RTVSPost2010PropOp35
 70
     1
102
RTVSPost2010Prop36
280
     0
102
RTVSPost2010PropOp36
 70
     1
102
RTVSPost2010Prop37
 90
       50
102
RTVSPost2010PropOp37
 70
     1
102
RTVSPost2010Prop38
140
0.0
102
RTVSPost2010PropOp38
 70
     1
102
RTVSPost2010Prop39
140
1.0
102
RTVSPost2010PropOp39
 70
     1
102
RTVSPost2010Prop40
 90
        0
102
RTVSPost2010PropOp40
 70
     1
102
RTVSPost2010Prop41ColorIndex
 90
       18
102
RTVSPost2010Prop41ColorRGB
 90
        0
102
RTVSPost2010PropOp41
 70
     1
102
RTVSPost2010Prop42
 90
       50
102
RTVSPost2010PropOp42
 70
     1
102
RTVSPost2010Prop43
 90
        3
102
RTVSPost2010PropOp43
 70
     1
102
RTVSPost2010Prop44ColorIndex
 90
        5
102
RTVSPost2010Prop44ColorRGB
 90
      255
102
RTVSPost2010PropOp44
 70
     1
102
RTVSPost2010Prop45
280
     0
102
RTVSPost2010PropOp45
 70
     1
102
RTVSPost2010Prop46
 90
       50
102
RTVSPost2010PropOp46
 70
     1
102
RTVSPost2010Prop47
 90
       50
102
RTVSPost2010PropOp47
 70
     1
102
RTVSPost2010Prop48
 90
       50
102
RTVSPost2010PropOp48
 70
     1
102
RTVSPost2010Prop49
280
     0
102
RTVSPost2010PropOp49
 70
     1
102
RTVSPost2010Prop50
 90
       50
102
RTVSPost2010PropOp50
 70
     1
102
RTVSPost2010Prop51ColorIndex
 90
      256
102
RTVSPost2010Prop51ColorRGB
 90
-16777216
102
RTVSPost2010PropOp51
 70
     0
102
RTVSPost2010Prop52
140
1.0
102
RTVSPost2010PropOp52
 70
     0
102
RTVSPost2010Prop53
 90
        2
102
RTVSPost2010PropOp53
 70
     1
102
RTVSPost2010Prop54
  1
strokes_ogs.tif
102
RTVSPost2010PropOp54
 70
     1
102
RTVSPost2010Prop55
280
     0
102
RTVSPost2010PropOp55
 70
     1
102
RTVSPost2010Prop56
140
1.0
102
RTVSPost2010PropOp56
 70
     1
102
RTVSPost2010Prop57
140
1.0
102
RTVSPost2010PropOp57
 70
     1
102
RTVSPropertyOp0
 70
     1
102
RTVSPropertyOp1
 70
     1
102
RTVSPropertyOp2
 70
     1
102
RTVSPropertyOp3
 70
     1
102
RTVSPropertyOp4
 70
     1
102
RTVSPropertyOp5
 70
     1
102
RTVSPropertyOp6
 70
     1
102
RTVSPropertyOp7
 70
     1
102
RTVSPropertyOp8
 70
     1
102
RTVSPropertyOp9
 70
     1
102
RTVSPropertyOp10
 70
     1
102
RTVSPropertyOp11
 70
     1
102
RTVSPropertyOp12
 70
     1
102
RTVSPropertyOp13
 70
     1
102
RTVSPropertyOp14
 70
     1
102
RTVSPropertyOp15
 70
     1
102
RTVSPropertyOp16
 70
     1
102
RTVSPropertyOp17
 70
     1
102
RTVSPropertyOp18
 70
     1
102
RTVSPropertyOp19
 70
     1
102
RTVSPropertyOp20
 70
     1
102
RTVSPropertyOp21
 70
     1
102
RTVSPropertyOp22
 70
     1
102
RTVSPropertyOp23
 70
     1
102
RTVSPropertyOp24
 70
     1
102
RTVSPropertyOp25
 70
     1
102
RTVSPropertyOp26
 70
     1
102
RTVSPropertyOp27
 70
     1
102
RTVSPropertyOp28
 70
     1
102
RTVSPropertyOp29
 70
     1
102
RTVSPropertyOp30
 70
     1
102
RTVSPropertyOp31
 70
     1
102
RTVSPropertyOp32
 70
     1
102
RTVSPropertyOp33
 70
     1
102
RTVSPropertyOp34
 70
     1
102
RTVSPropertyOp35
 70
     1
102
RTVSPropertyOp36
 70
     1
102
RTVSPropertyOp37
 70
     1
102
RTVSPropertyOp38
 70
     1
102
RTVSPropertyOp39
 70
     1
102
RTVSPropertyOp40
 70
     1
102
RTVSPropertyOp41
 70
     1
102
RTVSPropertyOp42
 70
     1
102
RTVSPropertyOp43
 70
     1
102
RTVSPropertyOp44
 70
     1
102
RTVSPropertyOp45
 70
     1
102
RTVSPropertyOp46
 70
     1
102
RTVSPropertyOp47
 70
     1
102
RTVSPropertyOp48
 70
     1
102
RTVSPropertyOp49
 70
     1
102
RTVSPropertyOp50
 70
     1
102
RTVSPropertyOp51
 70
     0
102
RTVSPropertyOp52
 70
     0
102
RTVSPropertyOp53
 70
     1
102
RTVSPropertyOp54
 70
     1
102
RTVSPropertyOp55
 70
     1
102
RTVSPropertyOp56
 70
     1
102
RTVSPropertyOp57
 70
     1
102
RTVSPropertyOp58
 70
     1
102
RTVSPropertyOp59
 70
     1
102
RTVSPropertyOp60
 70
     1
102
RTVSPropertyOp61
 70
     1
102
RTVSPropertyOp62
 70
     1
  0
XRECORD
  5
4576
102
{ACAD_REACTORS
330
4575
102
}
330
4575
100
AcDbXrecord
280
     1
102
RTVSPost2010Prop28
280
     0
102
RTVSPost2010PropOp28
 70
     1
102
RTVSPost2010Prop29
280
     1
102
RTVSPost2010PropOp29
 70
     1
102
RTVSPost2010Prop30
280
     1
102
RTVSPost2010PropOp30
 70
     1
102
RTVSPost2010Prop31
280
     0
102
RTVSPost2010PropOp31
 70
     1
102
RTVSPost2010Prop32
280
     0
102
RTVSPost2010PropOp32
 70
     1
102
RTVSPost2010Prop33
280
     0
102
RTVSPost2010PropOp33
 70
     1
102
RTVSPost2010Prop34
280
     0
102
RTVSPost2010PropOp34
 70
     1
102
RTVSPost2010Prop35
280
     0
102
RTVSPost2010PropOp35
 70
     1
102
RTVSPost2010Prop36
280
     0
102
RTVSPost2010PropOp36
 70
     1
102
RTVSPost2010Prop37
 90
       50
102
RTVSPost2010PropOp37
 70
     1
102
RTVSPost2010Prop38
140
0.0
102
RTVSPost2010PropOp38
 70
     1
102
RTVSPost2010Prop39
140
1.0
102
RTVSPost2010PropOp39
 70
     1
102
RTVSPost2010Prop40
 90
        0
102
RTVSPost2010PropOp40
 70
     1
102
RTVSPost2010Prop41ColorIndex
 90
       18
102
RTVSPost2010Prop41ColorRGB
 90
        0
102
RTVSPost2010PropOp41
 70
     1
102
RTVSPost2010Prop42
 90
       50
102
RTVSPost2010PropOp42
 70
     1
102
RTVSPost2010Prop43
 90
        3
102
RTVSPost2010PropOp43
 70
     1
102
RTVSPost2010Prop44ColorIndex
 90
        5
102
RTVSPost2010Prop44ColorRGB
 90
      255
102
RTVSPost2010PropOp44
 70
     1
102
RTVSPost2010Prop45
280
     0
102
RTVSPost2010PropOp45
 70
     1
102
RTVSPost2010Prop46
 90
       50
102
RTVSPost2010PropOp46
 70
     1
102
RTVSPost2010Prop47
 90
       50
102
RTVSPost2010PropOp47
 70
     1
102
RTVSPost2010Prop48
 90
       50
102
RTVSPost2010PropOp48
 70
     1
102
RTVSPost2010Prop49
280
     0
102
RTVSPost2010PropOp49
 70
     1
102
RTVSPost2010Prop50
 90
       50
102
RTVSPost2010PropOp50
 70
     1
102
RTVSPost2010Prop51ColorIndex
 90
      256
102
RTVSPost2010Prop51ColorRGB
 90
-16777216
102
RTVSPost2010PropOp51
 70
     0
102
RTVSPost2010Prop52
140
1.0
102
RTVSPost2010PropOp52
 70
     0
102
RTVSPost2010Prop53
 90
        2
102
RTVSPost2010PropOp53
 70
     1
102
RTVSPost2010Prop54
  1
strokes_ogs.tif
102
RTVSPost2010PropOp54
 70
     1
102
RTVSPost2010Prop55
280
     0
102
RTVSPost2010PropOp55
 70
     1
102
RTVSPost2010Prop56
140
1.0
102
RTVSPost2010PropOp56
 70
     1
102
RTVSPost2010Prop57
140
1.0
102
RTVSPost2010PropOp57
 70
     1
102
RTVSPropertyOp0
 70
     1
102
RTVSPropertyOp1
 70
     1
102
RTVSPropertyOp2
 70
     1
102
RTVSPropertyOp3
 70
     1
102
RTVSPropertyOp4
 70
     1
102
RTVSPropertyOp5
 70
     1
102
RTVSPropertyOp6
 70
     1
102
RTVSPropertyOp7
 70
     1
102
RTVSPropertyOp8
 70
     1
102
RTVSPropertyOp9
 70
     1
102
RTVSPropertyOp10
 70
     1
102
RTVSPropertyOp11
 70
     1
102
RTVSPropertyOp12
 70
     1
102
RTVSPropertyOp13
 70
     1
102
RTVSPropertyOp14
 70
     1
102
RTVSPropertyOp15
 70
     1
102
RTVSPropertyOp16
 70
     1
102
RTVSPropertyOp17
 70
     1
102
RTVSPropertyOp18
 70
     1
102
RTVSPropertyOp19
 70
     1
102
RTVSPropertyOp20
 70
     1
102
RTVSPropertyOp21
 70
     1
102
RTVSPropertyOp22
 70
     1
102
RTVSPropertyOp23
 70
     1
102
RTVSPropertyOp24
 70
     1
102
RTVSPropertyOp25
 70
     1
102
RTVSPropertyOp26
 70
     1
102
RTVSPropertyOp27
 70
     1
102
RTVSPropertyOp28
 70
     1
102
RTVSPropertyOp29
 70
     1
102
RTVSPropertyOp30
 70
     1
102
RTVSPropertyOp31
 70
     1
102
RTVSPropertyOp32
 70
     1
102
RTVSPropertyOp33
 70
     1
102
RTVSPropertyOp34
 70
     1
102
RTVSPropertyOp35
 70
     1
102
RTVSPropertyOp36
 70
     1
102
RTVSPropertyOp37
 70
     1
102
RTVSPropertyOp38
 70
     1
102
RTVSPropertyOp39
 70
     1
102
RTVSPropertyOp40
 70
     1
102
RTVSPropertyOp41
 70
     1
102
RTVSPropertyOp42
 70
     1
102
RTVSPropertyOp43
 70
     1
102
RTVSPropertyOp44
 70
     1
102
RTVSPropertyOp45
 70
     1
102
RTVSPropertyOp46
 70
     1
102
RTVSPropertyOp47
 70
     1
102
RTVSPropertyOp48
 70
     1
102
RTVSPropertyOp49
 70
     1
102
RTVSPropertyOp50
 70
     1
102
RTVSPropertyOp51
 70
     0
102
RTVSPropertyOp52
 70
     0
102
RTVSPropertyOp53
 70
     1
102
RTVSPropertyOp54
 70
     1
102
RTVSPropertyOp55
 70
     1
102
RTVSPropertyOp56
 70
     1
102
RTVSPropertyOp57
 70
     1
102
RTVSPropertyOp58
 70
     1
102
RTVSPropertyOp59
 70
     1
102
RTVSPropertyOp60
 70
     1
102
RTVSPropertyOp61
 70
     1
102
RTVSPropertyOp62
 70
     1
  0
XRECORD
  5
4578
102
{ACAD_REACTORS
330
4577
102
}
330
4577
100
AcDbXrecord
280
     1
102
RTVSPost2010Prop28
280
     0
102
RTVSPost2010PropOp28
 70
     1
102
RTVSPost2010Prop29
280
     1
102
RTVSPost2010PropOp29
 70
     1
102
RTVSPost2010Prop30
280
     1
102
RTVSPost2010PropOp30
 70
     1
102
RTVSPost2010Prop31
280
     0
102
RTVSPost2010PropOp31
 70
     1
102
RTVSPost2010Prop32
280
     0
102
RTVSPost2010PropOp32
 70
     1
102
RTVSPost2010Prop33
280
     0
102
RTVSPost2010PropOp33
 70
     1
102
RTVSPost2010Prop34
280
     0
102
RTVSPost2010PropOp34
 70
     1
102
RTVSPost2010Prop35
280
     0
102
RTVSPost2010PropOp35
 70
     1
102
RTVSPost2010Prop36
280
     0
102
RTVSPost2010PropOp36
 70
     1
102
RTVSPost2010Prop37
 90
       50
102
RTVSPost2010PropOp37
 70
     1
102
RTVSPost2010Prop38
140
0.0
102
RTVSPost2010PropOp38
 70
     1
102
RTVSPost2010Prop39
140
1.0
102
RTVSPost2010PropOp39
 70
     1
102
RTVSPost2010Prop40
 90
        0
102
RTVSPost2010PropOp40
 70
     1
102
RTVSPost2010Prop41ColorIndex
 90
       18
102
RTVSPost2010Prop41ColorRGB
 90
        0
102
RTVSPost2010PropOp41
 70
     1
102
RTVSPost2010Prop42
 90
       50
102
RTVSPost2010PropOp42
 70
     1
102
RTVSPost2010Prop43
 90
        3
102
RTVSPost2010PropOp43
 70
     1
102
RTVSPost2010Prop44ColorIndex
 90
        5
102
RTVSPost2010Prop44ColorRGB
 90
      255
102
RTVSPost2010PropOp44
 70
     1
102
RTVSPost2010Prop45
280
     0
102
RTVSPost2010PropOp45
 70
     1
102
RTVSPost2010Prop46
 90
       50
102
RTVSPost2010PropOp46
 70
     1
102
RTVSPost2010Prop47
 90
       50
102
RTVSPost2010PropOp47
 70
     1
102
RTVSPost2010Prop48
 90
       50
102
RTVSPost2010PropOp48
 70
     1
102
RTVSPost2010Prop49
280
     0
102
RTVSPost2010PropOp49
 70
     1
102
RTVSPost2010Prop50
 90
       50
102
RTVSPost2010PropOp50
 70
     1
102
RTVSPost2010Prop51ColorIndex
 90
      256
102
RTVSPost2010Prop51ColorRGB
 90
-16777216
102
RTVSPost2010PropOp51
 70
     0
102
RTVSPost2010Prop52
140
1.0
102
RTVSPost2010PropOp52
 70
     0
102
RTVSPost2010Prop53
 90
        2
102
RTVSPost2010PropOp53
 70
     1
102
RTVSPost2010Prop54
  1
strokes_ogs.tif
102
RTVSPost2010PropOp54
 70
     1
102
RTVSPost2010Prop55
280
     0
102
RTVSPost2010PropOp55
 70
     1
102
RTVSPost2010Prop56
140
1.0
102
RTVSPost2010PropOp56
 70
     1
102
RTVSPost2010Prop57
140
1.0
102
RTVSPost2010PropOp57
 70
     1
102
RTVSPropertyOp0
 70
     1
102
RTVSPropertyOp1
 70
     1
102
RTVSPropertyOp2
 70
     1
102
RTVSPropertyOp3
 70
     1
102
RTVSPropertyOp4
 70
     1
102
RTVSPropertyOp5
 70
     1
102
RTVSPropertyOp6
 70
     1
102
RTVSPropertyOp7
 70
     1
102
RTVSPropertyOp8
 70
     1
102
RTVSPropertyOp9
 70
     1
102
RTVSPropertyOp10
 70
     1
102
RTVSPropertyOp11
 70
     1
102
RTVSPropertyOp12
 70
     1
102
RTVSPropertyOp13
 70
     1
102
RTVSPropertyOp14
 70
     1
102
RTVSPropertyOp15
 70
     1
102
RTVSPropertyOp16
 70
     1
102
RTVSPropertyOp17
 70
     1
102
RTVSPropertyOp18
 70
     1
102
RTVSPropertyOp19
 70
     1
102
RTVSPropertyOp20
 70
     1
102
RTVSPropertyOp21
 70
     1
102
RTVSPropertyOp22
 70
     1
102
RTVSPropertyOp23
 70
     1
102
RTVSPropertyOp24
 70
     1
102
RTVSPropertyOp25
 70
     1
102
RTVSPropertyOp26
 70
     1
102
RTVSPropertyOp27
 70
     1
102
RTVSPropertyOp28
 70
     1
102
RTVSPropertyOp29
 70
     1
102
RTVSPropertyOp30
 70
     1
102
RTVSPropertyOp31
 70
     1
102
RTVSPropertyOp32
 70
     1
102
RTVSPropertyOp33
 70
     1
102
RTVSPropertyOp34
 70
     1
102
RTVSPropertyOp35
 70
     1
102
RTVSPropertyOp36
 70
     1
102
RTVSPropertyOp37
 70
     1
102
RTVSPropertyOp38
 70
     1
102
RTVSPropertyOp39
 70
     1
102
RTVSPropertyOp40
 70
     1
102
RTVSPropertyOp41
 70
     1
102
RTVSPropertyOp42
 70
     1
102
RTVSPropertyOp43
 70
     1
102
RTVSPropertyOp44
 70
     1
102
RTVSPropertyOp45
 70
     1
102
RTVSPropertyOp46
 70
     1
102
RTVSPropertyOp47
 70
     1
102
RTVSPropertyOp48
 70
     1
102
RTVSPropertyOp49
 70
     1
102
RTVSPropertyOp50
 70
     1
102
RTVSPropertyOp51
 70
     0
102
RTVSPropertyOp52
 70
     0
102
RTVSPropertyOp53
 70
     1
102
RTVSPropertyOp54
 70
     1
102
RTVSPropertyOp55
 70
     1
102
RTVSPropertyOp56
 70
     1
102
RTVSPropertyOp57
 70
     1
102
RTVSPropertyOp58
 70
     1
102
RTVSPropertyOp59
 70
     1
102
RTVSPropertyOp60
 70
     1
102
RTVSPropertyOp61
 70
     1
102
RTVSPropertyOp62
 70
     1
  0
ENDSEC
  0
SECTION
  2
THUMBNAILIMAGE
 90
    15968
310
28000000B8000000510000000100080000000000383A000001000000010000000001000000000000FFFFFFFFB0B0B0FF101010FFF0F0F0FFE0E0E0FF808080FFF8F8F8FFC8C8C8FFE8E8E8FF606060FF989898FFC0C0C0FF505050FFD0D0D0FF888888FF707070FFA0A0A0FFB8B8B8FF585858FF303030FFD8D8D8FF686868
310
FF787878FFA8A8A8FF202020FF909090FF383838FF404040FF282828FF484848FFFFFFFFFFFFFFFFFFFFFFFFFFFFFFFFFFFFFFFFFFFFFFFFFFFFFFFFFFFFFFFFFFFFFFFFFFFFFFFFFFFFFFFFFFFFFFFFFFFFFFFFFFFFFFFFFFFFFFFFFFFFFFFFFFFFFFFFFFFFFFFFFFFFFFFFFFFFFFFFFFFFFFFFFFFFFFFFFFFFFFFFFFFFFF
310
FFFFFFFFFFFFFFFFFFFFFFFFFFFFFFFFFFFFFFFFFFFFFFFFFFFFFFFFFFFFFFFFFFFFFFFFFFFFFFFFFFFFFFFFFFFFFFFFFFFFFFFFFFFFFFFFFFFFFFFFFFFFFFFFFFFFFFFFFFFFFFFFFFFFFFFFFFFFFFFFFFFFFFFFFFFFFFFFFFFFFFFFFFFFFFFFFFFFFFFFFFFFFFFFFFFFFFFFFFFFFFFFFFFFFFFFFFFFFFFFFFFFFFFFFFFFFF
310
FFFFFFFFFFFFFFFFFFFFFFFFFFFFFFFFFFFFFFFFFFFFFFFFFFFFFFFFFFFFFFFFFFFFFFFFFFFFFFFFFFFFFFFFFFFFFFFFFFFFFFFFFFFFFFFFFFFFFFFFFFFFFFFFFFFFFFFFFFFFFFFFFFFFFFFFFFFFFFFFFFFFFFFFFFFFFFFFFFFFFFFFFFFFFFFFFFFFFFFFFFFFFFFFFFFFFFFFFFFFFFFFFFFFFFFFFFFFFFFFFFFFFFFFFFFFFF
310
FFFFFFFFFFFFFFFFFFFFFFFFFFFFFFFFFFFFFFFFFFFFFFFFFFFFFFFFFFFFFFFFFFFFFFFFFFFFFFFFFFFFFFFFFFFFFFFFFFFFFFFFFFFFFFFFFFFFFFFFFFFFFFFFFFFFFFFFFFFFFFFFFFFFFFFFFFFFFFFFFFFFFFFFFFFFFFFFFFFFFFFFFFFFFFFFFFFFFFFFFFFFFFFFFFFFFFFFFFFFFFFFFFFFFFFFFFFFFFFFFFFFFFFFFFFFFF
310
FFFFFFFFFFFFFFFFFFFFFFFFFFFFFFFFFFFFFFFFFFFFFFFFFFFFFFFFFFFFFFFFFFFFFFFFFFFFFFFFFFFFFFFFFFFFFFFFFFFFFFFFFFFFFFFFFFFFFFFFFFFFFFFFFFFFFFFFFFFFFFFFFFFFFFFFFFFFFFFFFFFFFFFFFFFFFFFFFFFFFFFFFFFFFFFFFFFFFFFFFFFFFFFFFFFFFFFFFFFFFFFFFFFFFFFFFFFFFFFFFFFFFFFFFFFFFF
310
FFFFFFFFFFFFFFFFFFFFFFFFFFFFFFFFFFFFFFFFFFFFFFFFFFFFFFFFFFFFFFFFFFFFFFFFFFFFFFFFFFFFFFFFFFFFFFFFFFFFFFFFFFFFFFFFFFFFFFFFFFFFFFFFFFFFFFFFFFFFFFFFFFFFFFFFFFFFFFFFFFFFFFFFFFFFFFFFFFFFFFFFFFFFFFFFFFFFFFFFFFFFFFFFFFFFFFFFFFFFFFFFFFFFFFFFFFFFFFFFFFFFFFFFFFFFFF
310
FFFFFFFFFFFFFFFFFFFFFFFFFFFFFFFFFFFFFFFFFFFFFFFFFFFFFFFFFFFFFFFFFFFFFFFFFFFFFFFFFFFFFFFFFFFFFFFFFFFFFFFFFFFFFFFFFFFFFFFFFFFFFFFFFFFFFFFFFFFFFFFFFFFFFFFFFFFFFFFFFFFFFFFFFFFFFFFFFFFFFFFFFFFFFFFFFFFFFFFFFFFFFFFFFFFFFFFFFFFFFFFFFFFFFFFFFFFFFFFFFFFFFFFFFFFFFF
310
FFFFFFFFFFFFFFFFFFFFFFFFFFFFFFFFFFFFFFFFFFFFFFFFFFFFFFFFFFFFFFFFFFFFFFFFFFFFFFFFFFFFFFFFFFFFFF0000000000000000000000000000000000000000000000000000000000000000000000000000000000000000000000000000000000000000000000000000000000000000000000000000000000000000
310
00000000000000000000000000000000000000000000000000000000000000000000000000000000000000000000000000000000000000000000000000000000000000000000000000000000000000000000000000000000000000000000000000000000000000000000000000000000000000000000000000000000000000
310
00000000000000000000000000000000000000000000000000000000000000000000000000000000000000000000000000000000000000000000000000000000000000000000000000000000000000000000000000000000000000000000000000000000000000000000000000000000000000000000000000000000000000
310
00000000000000000000000000000000000000000000000000000000000000000000000000000000000000000000000000000000000000000000000000000000000000000000000000000000000000000000000000000000000000000000000000000000000000000000000000000000000000000000000000000000000000
310
00000000000000000000000000000000000000000000000000000000000000000000000000000000000000000000000000000000000000000000000000000000000000000000000000000000000000000000000000000000000000000000000000000000000000000000000000000000000000000000000000000000000000
310
00000000000000000000000000000000000000000000000000000000000000000000000000000000000000000000000000000000000000000000000000000000000000000000000000000000000000000000000000000000000000000000000000000000000000000000000000000000000000000000000000000000000000
310
00000000000000000000000000000000000000000000000000000000000000000000000000000000000000000000000000000000000000000000000000000000000000000000000000000000000000000000000000000000000000000000000000000000000000000000000000000000000000000000000000000000000000
310
00000000000000000000000000000000000000000000000000000000000000000000000000000000000000000000000000000000000000000000000000000000000000000000000000000000000000000000000000000000000000000000000000000000000000000000000000000000000000000000000000000000000000
310
00000000000000000000000000000000000000000000000000000000000000000000000000000000000000000000000000000000000000000000000000000000000000000000000000000000000000000000000000000000000000000000000000000000000000000000000000000000000000000000000000000000000000
310
00000000000000000000000000000000000000000000000000000000000000000000000000000000000000000000000000000000000000000000000000000000000000000000000000000000000000000000000000000000000000000000000000000000000000000000000000000000000000000000000000000000000000
310
00000000000000000000000000000000000000000000000000000000000000000000000000000000000000000000000000000000000000000000000000000000000000000000000000000000000000000000000000000000000000000000000000000000000000000000000000000000000000000000000000000000000000
310
00000000000000000000000000000000000000000000000000000000000000000000000000000000000000000000000000000000000000000000000000000000000000000000000000000000000000000000000000000000000000000000000000000000000000000000000000000000000000000000000000000000000000
310
00000000000000000000000000000000000000000000000000000000000000000000000000000000000000000000000000000000000000000000000000000000000000000000000000000000000000000000000000000000000000000000000000000000000000000000000000000000000000000000000000000000000000
310
00000000000000000000000000000000000000000000000000000000000000000000000000000000000000000000000000000000000000000000000000000000000000000000000000000000000000000000000000000000000000000000000000000000000000000000000000000000000000000000000000000000000000
310
00000000000000000000000000000000000000000000000000000000000000000000000000000000000000000000000000000000000000000000000000000000000000000000000000000000000000000000000000000000000000000000000000000000000000000000000000000000000000000000000000000000000000
310
00000000000000000000000000000000000000000000000000000000000000000000000000000000000000000000000000000000000000000000000000000000000000000000000000000000000000000000000000000000000000000000000000000000000000000000000000000000000000000000000000000000000000
310
00000000000000000000000000000000000000000000000000000000000000000000000000000000000000000000000000000000000000000000000000000000000000000000000000000000000000000000000000000000000000000114000000000000000000000000000000000000000000000000000000000000000000
310
00000000000000000000000000000000000000000000000000000000000000000000000000000000000000000000000000000000000000000000000000000000000000000000000000000000000000000000000000000000000000000000000000000000000000000000000000000000000000000000000000000000000000
310
00000000000000000000000000000000000000060006060E14021008000000000000000000000000000000000000000000000000000000000000000000000000000000000000000000000000000000000000000000000000000000000000000000000000000000000000000000000000000000000000000000000000000000
310
000000000000000000000000000000000000000000000000000000000000000000000000000000000000000000000000000000000000000000000000000000000000000000000000000000000000000D0A0E060803000000000000000000000000000000000000000000000000000000000000000000000000000000000000
310
00000000000000000000000000000000000000000000000000000000000000000000000000000000000000000000000000000000000000000000000000000000000000000000000000000000000000000000000000000000000000000000000000000000000000000000000000000000000000000000000000000000000000
310
00000000030710150000060601060700000000000000000000000000000000000000000000000000000000000000000000000000000000000000000000000000000000000000000000000000000000000000000000000000000000000000000000000000000000000000000000000000000000000000000000000000000000
310
00000000000000000000000000000000000000000000000000000000000000000000000000000000000000000000000000000000000000000000000000090A07080606060607150600000000000000000000000000000000000000000000000000000000000000000000000000000000000000000000000000000000000000
310
00000000000000000000000000000000000000000000000000000000000000000000000000000000000000000000000000000000000000000000000000000000000000000000000000000000000000000000000000000000000000000000000000000000000000000000000000000000000000000000000000001A04060606
310
170C0300000000000000000000000000000000000000000000000000000000000000000000000000000000000000000000000000000000000000000000000000000000000000000000000000000000000000000000000000000000000000000000000000000000000000000000000000000000000000000000000000000000
310
00000000000000000000000000000000000000000000000000000000000000000000000000000000000000000000000000000000060606010006150106000000000000000000000000000000000000000000000000000000000000000000000000000000000000000000000000000000000000000000000000000000000000
310
00000000000000000000000000000000000000000000000000000000000000000000000000000000000000000000000000000000000000000000000000000000000000000000000000000000000000000000000000000000000000000000000000000000000000000000000006060606061900061005140000000000000000
310
00000000000000000000000000000000000000000000000000000000000000000000000000000000000000000000000000000000000000000000000000000000000000000000000000000000000000000000000000000000000000000000000000000000000000000000000000000000000000000000000000000000000000
310
0000000000000000000000000000000000000000000000000000000000000000000000000000060606060608000006170D060000000000000000000000000000000000000000000000000000000000000000000000000000000000000000000000000000000000000000000000000000000000000000000000000000000000
310
000000000000000000000000000000000000000000000000000000000000000000000000000000000000000000000000000000000000000000000000000000000000000000000000000000000000000000000000000000000000000000000606061406080603010008050A0700000000000000001600000000000000000000
310
00000000000000000000000000000000000000000000000000000000000000000000000000000000000000000000000000000000000000000000000000000000000000000000000000000000000000000000000000000000000000000000000000000000000000000000000000000000000000000000000000000000000000
310
000000000000000000000000000000000B0000000000000006060500000306060601000605040600000000000005040000000000000000000000000000000000000000000000000000000000000000000000000000000000000000000000000000000000000000000000000000000000000000000000000000000000000000
310
00000000000000000000000000000000000000000000000000000000000000000000000000000000000000000000000000000000000000000000000000000000000000000000000000010D000000000005061200000006060D0606010004050308000000000E04000000000000000000000000000000000000000000000000
310
00000000000000000000000000000000000000000000000000000000000000000000000000000000000000000000000000000000000000000000000000000000000000000000000000000000000000000000000000000000000000000000000000000000000000000000000000000000000000000000000000000000000000
310
000000001908130006000106030000000606000006060100060B010300000A14001A060000000000000000000000000000000000000000000000000000000000000000000000000000000000000000000000000000000000000000000000000000000000000000000000000000000000000000000000000000000000000000
310
0000000000000000000000000000000000000000000000000000000000000000000000000000000000000000000000000000000000001600000000151C00150610000006061000000606040000000606010006070303100D001206000000000000000000000000000000000000000000000000000000000000000000000000
310
00000000000000000000000000000000000000000000000000000000000000000000000000000000000000000000000000000000000000000000000000000000000000000000000000000000000000000000000000000000000000000000000000000000000000000000000000000006060000000606030618060619060614
310
000006060000000000060601000810060600150300000E0000000000000000000000000000000000000000000000000000000000000000000000000000000000000000000000000000000000000000000000000000000000000000000000000000000000000000000000000000000000000000000000000000000000000000
310
00000000000000000000000000000000000000000000000000000000000000000000000000000000001606060E0606001108060606060606100006061D0000000000000B0606000617030608000019140000000000000000000000000000000000000000000000000000000000000000000000000000000000000000000000
310
00000000000000000000000000000000000000000000000000000000000000000000000000000000000000000000000000000000000000000000000000000000000000000000000000000000000000000000000000000000000000000000000000000000070606150007100706060606060000060607060006000000060606
310
1000080F0614000A0D00000010000000000000000000000000000000000000000000000000000000000000000000000000000000000000000000000000000000000000000000000000000000000000000000000000000000000000000000000000000000000000000000000000000000000000000000000000000000000000
310
0000000000000000000000000000000000000000000000000000000000000006030604031606060606060606050606060604141A0006061000070A00061503140D000000170B000000000000000000000000000000000000000000000000000000000000000000000000000000000000000000000000000000000000000000
310
000000000000000000000000000000000000000000000000000000000000000000000000000000000000000000000000000000000000000000000000000000000000000000000000000000000000000000000000000000040700090606060606060606071A06060606060606060606030000000D1900060506060000170B00
310
00000000000000000000000000000000000000000000000000000000000000000000000000000000000000000000000000000000000000000000000000000000000000000000000000000000000000000000000000000000000000000000000000000000000000000000000000000000000000000000000000000000000000
310
000000000000000000000007160000000006060113000606060606060610060606060606060006060600000000000D0E00060A0603010B000000000000000000000000000000000000000000000000000000000000000000000000000000000000000000000000000000000000000000000000000000000000000000000000
310
00000000000000000000000000000000000000000000000000000000000000000000000000000000000000000000000000000000000000000000000000000000000000000A0408100000001301060B0C000A06060606010606060606061106060609000000000000140E00061C060600000000000000000000000000000000
310
00000000000000000000000000000000000000000000000000000000000000000000000000000000000000000000000000000000000000000000000000000000000000000000000000000000000000000000000000000000000000000000000000000000000000000000000000000000000000000000000000000000000000
310
0F07060B090000001703071500100606060606060606060606060D00000000000000000617120611060400000000000000000000000000000000000000000000000000000000000000000000000000000000000000000000000000000000000000000000000000000000000000000000000000000000000000000000000000
310
00000000000000000000000000000000000000000000000000000000000000000000000000000000000000000000000000000000000000000000001C170314190000000A081405000F060606060606060806060E0006000000000000070600160600140E0000000000000C0000000000000000000000000000000000000000
310
00000000000000000000000000000000000000000000000000000000000000000000000000000000000000000000000000000000000000000000000000000000000000000000000000000000000000000000000000000000000000000000000000000000000000000000000000000000000000000000000E0D03011B00000E
310
0604190009060606060606060606070000000000000000030800160600060B000000001203000000000000000000000000000000000000000000000000000000000000000000000000000000000000000000000000000000000000000000000000000000000000000000000000000000000000000000000000000000000000
310
0000000000000000000000000000000000000000000000000000000000000000000000000000000000000000000000000000000C11060716000016060206000606060606060606060D00000000000000000D0605100600060B0000090300000000000000000000000000000000000000000000000000000000000000000000
310
0000000000000000000000000000000000000000000000000000000000000000000000000000000000000000000000000000000000000000000000000000000000000000000000000000000000000000000000000000000000000000000000000000000000000000000000000000000A040810011100000D06070606060606
310
0606060600000000000000110D00000F060006140903000000000000000000000000000000000000000000000000000000000000000000000000000000000000000000000000000000000000000000000000000000000000000000000000000000000000000000000000000000000000000000000000000000000000000000
310
000000000000000000000000000000000000000000000000000000000000000000000000000000000000000F07061D0000110606060606060606060606060800000000190D000000001B0600060600000000000002080000000000000000000000000000000000000000000000000000000000000000000000000000000000
310
0000000000000000000000000000000000000000000000000000000000000000000000000000000000000000000000000000000000000000000000000000000000000000000000000000000000000000000000000000000000000000000000000000000000191400000011060606060606060606060606040B00000C030000
310
00000000050600061000000000150615000000000000000000000000000000000000000000000000000000000000000000000000000000000000000000000000000000000000000000000000000000000000000000000000000000000000000000000000000000000000000000000000000000000000000000000000000000
310
000000000000000000000000000000000000000000000000000000000000000D19000000001906060606060606060606060017030F030C00000000000000120300060A000019080000000000000000000000000000000000000000000000000000000000000000000000000000000000000000000000000000000000000000
310
0000000000000000000000000000000000000000000000000000000000000000000000000000000000000000000000000000000000000000000000000000000000000000000000000000000000000000000000000000001806000000000006060606060606060606060200000C060E0000000000000000001506000319010D
310
00000000000000000000000000000000000000000000000000000000000000000000000000000000000000000000000000000000000000000000000000000000000000000000000000000000000000000000000000000000000000000000000000000000000000000000000000000000000000000000000000000000000000
310
00000000000000000000000000000000000A070000000000090E0000150A11030606060D11100512000000000000000000000009080006060600000404140D0711170A161509000000000000000000000000000000000000000000000000000000000000000000000000000000000000000000000000000000000000000000
310
0000000000000000000000000000000000000000000000000000000000000000000000000000000000000000000000000000000000000000000000000000000000000000000000000000140E0000000000000000000000000000090F19010704030608140B040E0F1B000000000A060A060600000303060606060606060606
310
00000000000000000000000000000000000000000000000000000000000000000000000000000000000000000000000000000000000000000000000000000000000000000000000000000000000000000000000000000000000000000000000000000000000000000000000000000000000000000000000000000000000000
310
0000001A060000000000000000000000000000000000000000000018150E170603080606081407011403090316000000000000000000021A1D00000000000000000000000000000000000000000000000000000000000000000000000000000000000000000000000000000000000000000000000000000000000000000000
310
0000000000000000000000000000000000000000000000000000000000000000000000000000000000000000000000000000000000000000000000001006110A0F1A000000000000000000000000000000000000000000000A0700001A150E1011070306000603071110050918000000000000000000000000000000000000
310
00000000000000000000000000000000000000000000000000000000000000000000000000000000000000000000000000000000000000000000000000000000000000000000000000000000000000000000000000000000000000000000000000000000000000000000000000000000000000000000190107040603140B10
310
051D000000000000000000000000000000000C030000000000000000000F0609060A010714030603040D11100E15000000000000000000000000000000000000000000000000000000000000000000000000000000000000000000000000000000000000000000000000000000000000000000000000000000000000000000
310
0000000000000000000000000000000000000000000000000000000000000000000000000000000000000000000000000000000000120E17070403030407170E120000000000000000000000080F0000000000000000000F03000000000000000C160A01071408000000000000000000000000000000000000000000000000
310
00000000000000000000000000000000000000000000000000000000000000000000000000000000000000000000000000000000000000000000000000000000000000000000000000000000000000000000000000000000000000000000000000000000000000000000000000000000000000001D05100B14030604070119
310
0900000000001101000000000000000000001D000000000000000000000000000000000000000000000000000000000000000000000000000000000000000000000000000000000000000000000000000000000000000000000000000000000000000000000000000000000000000000000000000000000000000000000000
310
000000000000000000000000000000000000000000000000000000000000000000000000000000000000000000000000000000001A0F0A110D0806080D110A01080000000000000000000000000000000000000000000000000000000000000000000000000000000000000000000000000000000000000000000000000000
310
00000000000000000000000000000000000000000000000000000000000000000000000000000000000000000000000000000000000000000000000000000000000000000000000000000000000000000000000000000000000000000000000000000000000000000000000000000000000000021519010D08060314110A16
310
1A000000000000000000000000000000000000000000000000000000000000000000000000000000000000000000000000000000000000000000000000000000000000000000000000000000000000000000000000000000000000000000000000000000000000000000000000000000000000000000000000000000000000
310
00000000000000000000000000000000000000000000000000000000000000000000000000000000000000000000000000000000090E0107040603140B100000000000000000000000000000000000000000000000000000000000000000000000000000000000000000000000000000000000000000000000000000000000
310
000000000000000000000000000000000000000000000000000000000000000000000000000000000000000000000000000000000000000000000000000000000000000000000000000000000000000000000000000000000000000000000000000000000000000000000000000000000000000C0E17070000000000000000
310
00000000000000000000000000000000000000000000000000000000000000000000000000000000000000000000000000000000000000000000000000000000000000000000000000000000000000000000000000000000000000000000000000000000000000000000000000000000000000000000000000000000000000
310
00000000000000000000000000000000000000000000000000000000000000000000000000000000000000000000000000000000000000000000000000000000000000000000000000000000000000000000000000000000000000000000000000000000000000000000000000000000000000000000000000000000000000
310
00000000000000000000000000000000000000000000000000000000000000000000000000000000000000000000000000000000000000000000000000000000000000000000000000000000000000000000000000000000000000000000000000000000000000000000000000000000000000000000000000000000000000
310
00000000000000000000000000000000000000000000000000000000000000000000000000000000000000000000000000000000000000000000000000000000000000000000000000000000000000000000000000000000000000000000000000000000000000000000000000000000000000000000000000000000000000
310
00000000000000000000000000000000000000000000000000000000000000000000000000000000000000000000000000000000000000000000000000000000000000000000000000000000000000000000000000000000000000000000000000000000000000000000000000000000000000000000000000000000000000
310
00000000000000000000000000000000000000000000000000000000000000000000000000000000000000000000000000000000000000000000000000000000000000000000000000000000000000000000000000000000000000000000000000000000000000000000000000000000000000000000000000000000000000
310
00000000000000000000000000000000000000000000000000000000000000000000000000000000000000000000000000000000000000000000000000000000000000000000000000000000000000000000000000000000000000000000000000000000000000000000000000000000000000000000000000000000000000
310
00000000000000000000000000000000000000000000000000000000000000000000000000000000000000000000000000000000000000000000000000000000000000000000000000000000000000000000000000000000000000000000000000000000000000000000000000000000000000000000000000000000000000
310
00000000000000000000000000000000000000000000000000000000000000000000000000000000000000000000000000000000000000000000000000000000000000000000000000000000000000000000000000000000000000000000000000000000000000000000000000000000000000000000000000000000000000
310
00000000000000000000000000000000000000000000000000000000000000000000000000000000000000000000000000000000000000000000000000000000000000000000000000000000000000000000000000000000000000000000000000000000000000000000000000000000000000000000000000000000000000
310
00000000000000000000000000000000000000000000000000000000000000000000000000000000000000000000000000000000000000000000000000000000000000000000000000000000000000000000000000000000000000000000000000000000000000000000000000000000000000000000000000000000000000
310
00000000000000000000000000000000000000000000000000000000000000000000000000000000000000000000000000000000000000000000000000000000000000000000000000000000000000000000000000000000000000000000000000000000000000000000000000000000000000000000000000000000000000
310
00000000000000000000000000000000000000000000000000000000000000000000000000000000000000000000000000000000000000000000000000000000000000000000000000000000000000000000000000000000000000000000000000000000000000000000000000000000000000000000000000000000000000
310
00000000000000000000000000000000000000000000000000000000000000000000000000000000000000000000000000000000000000000000000000000000000000000000000000000000000000000000000000000000000000000000000000000000000000000000000000000000000000000000000000000000000000
310
00000000000000000000000000000000000000000000000000000000000000000000000000000000000000000000000000000000000000000000000000000000000000000000000000000000000000000000000000000000000000000000000000000000000000000000000000000000000000000000000000000000000000
310
00000000000000000000000000000000000000000000000000000000000000000000000000000000000000000000000000000000000000000000000000000000000000000000000000000000000000000000000000000000000000000000000000000000000000000000000000000000000000000000000000000000000000
310
00000000000000000000000000000000000000000000000000000000000000000000000000000000000000000000000000000000000000000000000000000000000000000000000000000000000000000000000000000000000000000000000000000000000000000000000000000000000000000000000000000000000000
310
00000000000000000000000000000000000000000000000000000000000000000000000000000000000000000000000000000000000000000000000000000000000000000000000000000000000000000000000000000000000000000000000000000000000000000000000000000000000000000000000000000000000000
310
00000000000000000000000000000000000000000000000000000000000000000000000000000000000000000000000000000000000000000000000000000000000000000000000000000000000000000000000000000000000000000000000000000000000000000000000000000000000000000000000000000000000000
310
00000000000000000000000000000000000000000000000000000000000000000000000000000000000000000000000000000000000000000000000000000000000000000000000000000000000000000000000000000000000000000000000000000000000000000000000000000000000000000000000000000000000000
310
00000000000000000000000000000000000000000000000000000000000000000000000000000000000000000000000000000000000000000000000000000000000000000000000000000000000000000000000000000000000000000000000000000000000000000000000000000000000000000000000000000000000000
310
00000000000000000000000000000000000000000000000000000000000000000000000000000000000000000000000000000000000000000000000000000000000000000000000000000000000000000000000000000000000000000000000000000000000000000000000000000000000000000000000000000000000000
310
00000000000000000000000000000000000000000000000000000000000000000000000000000000000000000000000000000000000000000000000000000000000000000000000000000000000000000000000000000000000000000000000000000000000000000000000000000000000000000000000000000000000000
310
00000000000000000000000000000000000000000000000000000000000000000000000000000000000000000000000000000000000000000000000000000000000000000000000000000000000000000000000000000000000000000000000000000000000000000000000000000000000000000000000000000000000000
310
00000000000000000000000000000000000000000000000000000000000000000000000000000000000000000000000000000000000000000000000000000000000000000000000000000000000000000000000000000000000000000000000000000000000000000000000000000000000000000000000000000000000000
310
00000000000000000000000000000000000000000000000000000000000000000000000000000000000000000000000000000000000000000000000000000000000000000000000000000000000000000000000000000000000000000000000000000000000000000000000000000000000000000000000000000000000000
310
00000000000000000000000000000000000000000000000000000000000000000000000000000000000000000000000000000000000000000000000000000000000000000000000000000000000000000000000000000000000000000000000000000000000000000000000000000000000000000000000000000000000000
310
00000000000000000000000000000000000000000000000000000000000000000000000000000000000000000000000000000000000000000000000000000000000000000000000000000000000000000000000000000000000000000000000000000000000000000000000000000000000000000000000000000000000000
310
00000000000000000000000000000000000000000000000000000000000000000000000000000000000000000000000000000000000000000000000000000000000000000000000000000000000000000000000000000000000000000000000000000000000000000000000000000000000000000000000000000000000000
310
00000000000000000000000000000000000000000000000000000000000000000000000000000000000000000000000000000000000000000000000000000000000000000000000000000000000000000000000000000000000000000000000000000000000000000000000000000000000000000000000000000000000000
310
00000000000000000000000000000000000000000000000000000000000000000000000000000000000000000000000000000000000000000000000000000000000000000000000000000000000000000000000000000000000000000000000000000000000000000000000000000000000000000000000000000000000000
310
00000000000000000000000000000000000000000000000000000000000000000000000000000000000000000000000000000000000000000000000000000000000000000000000000000000000000000000000000000000000000000000000000000000000000000000000000000000000000000000000000000000000000
310
00000000000000000000000000000000000000000000000000000000000000000000000000000000000000000000000000000000000000000000000000000000000000000000000000000000000000000000000000000000000000000000000000000000000000000000000000000000000000000000000000000000000000
310
00000000000000000000000000000000000000000000000000000000000000000000000000000000000000000000000000000000000000000000000000000000000000000000000000000000000000000000000000000000000000000000000000000000000000000000000000000000000000000000000000000000000000
310
00000000000000000000000000000000000000000000000000000000000000000000000000000000000000000000000000000000000000000000000000000000000000000000000000000000000000000000000000000000000000000000000000000000000000000000000000000000000000000000000000000000000000
310
00000000000000000000000000000000000000000000000000000000000000000000000000000000000000000000000000000000000000000000000000000000000000000000000000000000000000000000000000000000000000000000000000000000000000000000000000000000000000000000000000000000000000
310
00000000000000000000000000000000000000000000000000000000000000000000000000000000000000000000000000000000000000000000000000000000000000000000000000000000000000000000000000000000000000000000000000000000000000000000000000000000000000000000000000000000000000
310
00000000000000000000000000000000000000000000000000000000000000000000000000000000000000000000000000000000000000000000000000000000000000000000000000000000000000000000000000000000000000000000000000000000000000000000000000000000000000000000000000000000000000
310
00000000000000000000000000000000000000000000000000000000000000000000000000000000000000000000000000000000000000000000000000000000000000000000000000000000000000000000000000000000000000000000000000000000000000000000000000000000000000000000000000000000000000
310
00000000000000000000000000000000000000000000000000000000000000000000000000000000000000000000000000000000000000000000000000000000000000000000000000000000000000000000000000000000000000000000000000000000000000000000000000000000000000000000000000000000000000
310
00000000000000000000000000000000000000000000000000000000000000000000000000000000000000000000000000000000000000000000000000000000000000000000000000000000000000000000000000000000000000000000000000000000000000000000000000000000000000000000000000000000000000
310
00000000000000000000000000000000000000000000000000000000000000000000000000000000000000000000000000000000000000000000000000000000000000000000000000000000000000000000000000000000000000000000000000000000000000000000000000000000000000000000000000000000000000
310
000000000000000000000000000000000000000000000000000000000000000000000000000000000000000000000000000000000000000000000000000000000000000000000000000000000000000000000000000000000000000000
  0
ENDSEC
  0
EOF
